Archive, j >> jason mraz

love for a child intro ver2 tab

 Tabbed by: Matthew
Email: leafzforever@hotmail.com

Tuning:

e|------4/6------------------------------------8--11--13--10--8--6---------|
B|--------------6/10--------12----12/8------8------------------------------|
G|---------------------10--------------------------------------------------|
D|-------------------------------------------------------------------------|
A|-------------------------------------------------------------------------|
E|-------------------------------------------------------------------------|

e|--8-----8---8---6--5-----------------------------------------------------|
B|----------8---8----------------------------------------------------------|
G|-------------------------------------------------------------------------|
D|-------------------------------------------------------------------------|
A|-------------------------------------------------------------------------|
E|-------------------------------------------------------------------------|