Archive, j >> jason mraz

lucky intro tab

 -------------------------------------------------------------------------------
                             Lucky - Jason Mraz
-------------------------------------------------------------------------------
Tabbed by:blake.taylor
Email:fabulouskilljoy91@gmail.com

Tuning:Standard

e|-------------------------------------------------------------------------|
B|-------------------------------------------------------------------------|
G|----0--0--0--0--0--0--0--0--0--0--0--0-----------------------------------|
D|----2--2--2--2--2--2--2--2--2--2--2--2--------------3--3--3--3--0--0--0--|
A|----3--3--3--3--3--3--3--3--3--3--3--3--3--3--3--3--5--5--5--5--2--2--2--|
E|----------------------------------------5--5--5--5--------------3--3--3--|

e|-------------------------------------------------------------------------|
B|-------------------------------------------------------------------------|
G|-----------------------------------------------------0--0--0--0----------|
D|--0--5--5--5--5--------------3--3--3--3--0--0--0--0--2--2--2--2----------|
A|--2--7--7--7--7--3--3--3--3--5--5--5--5--2--2--2--2--3--3--3--3----------|
E|--3--------------5--5--5--5--------------3--3--3--3----------------------|

So yeah. That's the intro and verses

First Tab So Please Rate!

************************************

| /   slide up
| \   slide down
| h   hammer-on
| p   pull-off
| ~   vibrato
| +   harmonic
| x   Mute note
| b   Bend
| pb  Pre-bend
| br  Bend release
| pbr Pre-bend release
| brb Bend release bend

************************************ 

Related Files