Archive, j >> jason mraz

not so usual tab

 Not So Usual
Standard Tuning
No Capo

(Intro)
e-------------------------------------------|
B------------------1-------0----------------|
G---------(0)------2-------2----------------|
D----------2-------2-------1----------------|  1x then..
A--0h2-----2---0-0-0---2-2-2---0h2p0--------|
E------0-0-0-------------------------h2p0---|

e--------------5-------8---10---------------|
B--------------5-------8---8----------------|
G-----(0)------5-------7---9----------------|
D------2-------7-------7---7----------------|  2x then..
A------2---7-7-7-------6--------------------|
E--0-0-0-----------7-7-7--------------------|
                     *
e--------------5----------------------------|
B--------------5----------------------------|
G-----(0)------5---7-7-7-7-7----------------|
D------2-------7---7-7-7-7-7----------------|
A------2---7-7-7---6-6-6-6-6----------------|
E--0-0-0-----------7-7-7-7-7----------------|


* if that chord ain't right..it's pretty close.

Part (1)
e----------------------------------------|
B---------------1-------0----------------|
G------(0)------2-------2----------------|
D-------2-------2-------1----------------|
A-------2---0-0-0---2-2-2----------------|
E---0-0-0--------------------------------|

Part (2)
e------------------------------------------------------|
B--1---3---------------------1---3--------------1------|
G--2---0-----------0--0-(0)--2---0---0--0-(0)---0------|
D--2---4--2x then--0--0--2---2---4---0--0--2----2------|
A--0---5-----------2--x--2---0---5---2--x--2----3------|
E------------------3--2--0-----------3--2--0-----------|

(End)
e------2------|
B------3------|
G------2------|
D------4------|
A----2-2------|
E--0----------|