Archive, j >> jason mraz

on love in sadness ver2 crd

     _________________________________
   / Jason Mraz                     /
  / On Love, In Sadness            /
 / Waiting for My Rocket to Come  /
/________________________________/

 Chords:
(Capo on 2nd fret)
  verse                        chorus              bridge
     A   Bm7   C#m7   D(add9)    A   E   Bm7   D     G   D   C   G#
e:---3----5-----7-------10---- --3---2----3----3-- --1---0-------2----:
B:---0----5-----7--------8---- --0---3----1----1-- --1---1---3---2----:
G:---0----5-----7--------9---- --0---2----0----0-- --2---0---3---3----:
D:---0----5-----7--------x---- --0---0----2----2-- --3---2---3---4----:
A:---2----x-----x-------10---- --2--------0----3-- --3---3---1---4----:
E:---3----5-----7--------8---- --3---------------- --1-----------2----:


 Intro:
It's not really useful putting chords to this part. The first part would
switching between E/f# and F#m7, and the second part is changing between
Dmaj7-5, D5maj7 and Dmaj7 rather randomly. It would be a better idea to
generalise it to just F#m7 and Dmaj7.
(I've also made this in GP5, so just mail me and ask if want you want it.)

    F#m7              F#m7              F#m7              F#m7
||------------------|-----------------|-----------------|-----------------|
||o-----0-----0---0-|---0-0-----0-0---|-----0-----0---0-|---0-0-----0-0---|
||------9-----7---9-|---9-9-----7-7---|-----9-----7---9-|---9-9-----7-7---|
||------7-----5---7-|---7-7-----5-5---|-----7-----5---7-|---7-7-----5-5---|
||o-----9-----7---9-|---9-9-----7-7---|-----9-----7---9-|---9-9-----7-7---|
||--0---0---0-0---0-|---0-0---0-0-0-0-|-0---0---0-0---0-|---0-0---0-0-0-0-|

                                                       (break here 2.time)
  Dmaj7             Dmaj7             Dmaj7             Dmaj7
|-----------------|-----------------|-----------------|------------------||
|-------0-0-0---0-|---0-0---0-0-0-0-|-0---0-0-0-0---0-|---0-0---0-0-0-0-o||
|-------0-0-0---x-|---x-x---0-0-0-0-|-x---x-0-0-0---x-|---x-x---x-x-x-x--||
|-----9-9-9-9---9-|---9-9---9-9-9-9-|-9---9-9-9-9---9-|---9-9---9-9-9-9--||
|-----9-x-x-x---9-|---9-9---7-7-7-7-|-9---9-x-x-x---9-|---9-9---9-9-9-9-o||
|-8---8-8-8-8---8-|---8-8---8-8-8-8-|-8---8-8-8-8---8-|---8-8---8-8-8-8--||



 Verse 1:
||: A | A | Bm7 | Bm7 |

| C#m7 | C#m7 | D(add9) | D(add9) :||



 Chorus 1:
||: A | E | Bm7 | Bm7 :|| 3x

| D | D | D | break |



 Interlude (½ intro)


 Verse 2:
||: A | Bm7 | C#m7 | D(add9) :|| 3x

| A | Bm7 | A | A |



 Chorus 2:
||: A | E | Bm7 | Bm7 :|| 3x

| A | Bm7 | A | break |



 Bridge:
||: G | D | C | G :||

        [break]
| G | D | C |  G G# |

| A | Bm7 | C#m7 | D(add9) |

| A | Bm7 | A | break |



 Verse 1

 2x Chorus 1 (quit the break on D the first time)

 Outro (intro)



- 30th /May /09
Just mail me at Maitinin@gmail.com with questions, comments and corrections!