Archive, j >> jason mraz

on love in sadness ver2 tab

 On Love, In Sadness
Standard Tuning
Capo on the 2nd Fret

Part (1)
e----------------------------------------------------------------------------------------|
B----------------------------------------------------------------------------------------|
G--9--9--7--9--9--9--7--9--9--7--9--9--9--7----------------------------------------------|
D--7--7--5--7--7--7--5--7--7--5--7--7--7--5--9--9--9--9--9--9--9--9--9--9--9--9--9--9----|
A--9--9--7--9--9--9--7--9--9--7--9--9--9--7--9--9--7--9--9--9--7--9--9--7--9--9--9--7----|
E--0--0--0--0--0--0--0--0--0--0--0--0--0--0--8--8--8--8--8--8--8--8--8--8--8--8--8--8----|

Part (2)
e--3------------------|
B--3--(5)-(7)--8------|
G--4---5---7---7------|
D--5---5---7---7------|
A--5---x---x---7------|
E--3---5---7---8------|

Part (3)
e--3---5-----------------------------|
B--3---3--(5)------------8-----------|
G--4---0---5-------------7-----------|
D--5---4---5--2x end on--7-----------|
A--5---5---x-------------7-----------|
E--3-------5-------------8-----------|

Part (4)
e--3------------------------3-------3---|
B--3--(5)-(7)--8------------3--(5)--3---|
G--4---5---7---7------------4---5---4---|
D--5---5---7---7---3x then--5---5---5---|
A--5---x---x---7------------5---x---5---|
E--3---5---7---8------------3---5---3---|

Part (5)
e--1--(3)------1-----------------------------1--2--3--|
B--1---1-------1-----------------------------1--2--3--|
G--2---0---3---2--------------------3--------2--3--4--|
D--3---2---3---3---3rd time end on--3--then--3--4--5--|
A--3---3---1---3--------------------1--------3--4--5--|
E--1-----------1-----------------------------1--2--3--|

Part (6)
e--3---------------3-------3---|
B--3--(5)-(7)--8---3--(5)--3---|
G--4---5---7---7---4---5---4---|
D--5---5---7---7---5---5---5---|
A--5---x---x---7---5---x---5---|
E--3---5---7---8---3---5---3---|