Archive, j >> jason mraz

plane ver2 tab

 Capo on 2nd Fret all notes are relative to capo

X-Palm Mute/Slap the chord

Intro
e|--------4-4--------0-0--------5--------4-4-----------------|
b|--------5-5--------0-0--------5--------4-4-----------------|
g|--------6-6--------1-1--------6--------5-5-----------------|
d|-----6--6-6--------2-2--------7--------6-6-----------------|
a|--4-----4-4-----2----------7--7-----6--6-6-----------------|
e|-------------0----------5-----5--4-------------------------|

Verse
          X         X        X        X
e|--------4---------0--------5--------4------------------|
b|--------5---------0--------5--------4------------------|
g|--------6---------1--------6--------5------------------|
d|-----6--6---------2--------7--------6------------------|
a|--4-----4------2--------7--7-----6--6------------------|
e|------------0--------5-----5--4-------------------------|

Chorus
          X        X        X(somtimes during the chorus he
                             slaps this chord one extra time)
e|--------5--------0--------4--| 
b|--------5--------0--------4--| 
g|--------6--------1--------5--| 
d|--------7--------2--------6--| 
a|-----7--7-----2--2-----6--6--| 
e|--5-----5--0--------4--------| 

Breakdown
          X        X         X        X
e|--------4--------7---------5--------5---|
b|--------5--------7---------5--------5---|
g|--------6--------8---------6--------6---|
d|-----6--6--------9---------7--------7---|
a|--4-----4-----9--9---------7--------7---|
e|-----------7-----7---5--5--5--5--5------|

Im 100% sure this is correct i listened to the song over and over
and i have a video. Any questions email Laurin1289@sbcglobal.net