Archive, j >> jason mraz

please dont tell her tab

 ARTIST/SONG: Jason Mraz- \\" Please Dont Tell Her\\" 
Tabbed By: Nam Nguyen
Email: Aznf0opt2@hotmail.com


Acoustic Version.... and i guess the album version too.
Listen to the song and figure out the strumming and the timing
Tuning: Standard


Intro starts with a simple slide here and there...  
e|--x----0-------x----4-----x----4---x---5---7--------|
B|--x----0-------x----5-----x----4---x---5---7--------|
G|--x----x-------x----6-----x----4---x---6---8--------|
D|--2/6--6------2/6---6-----x----6---x---7---9--------|
A|--x----x-------x----4----2/6---6--6/7--7---9--------|
E|--x----0-------x----x-----x----4---x---5---7--------|




End of Intro
e|--x----0-------x----4-----x----4---x---5---7--------|
B|--x----0-------x----5-----x----4---x---5---7--------|
G|--x----x-------x----6-----x----4---x---6---8--------|
D|-9/6---6------9/6---6-----x----6---x---7---9--------|
A|--x----x-------x----4----2/6---6--6/7--7---9--------|
E|--x----0-------x----x-----x----4---x---5---7--------|




BEGINNING VERSE
WHEN HE STARTS TO SING
\\" I hear she's kickin ass across the board 
And rock two hundred thousand higher scorer 
Just in time to save the world of being taken over 
she's a warrior 
i couldn't play again because the game it never ended 
It never even landed on the can 
And never let me in to spend my quarter 
there's no love for me...\\" 
(2x)
e|--0--------4--------4-------5------7----------------|
B|--0--------5--------4-------5------7----------------|
G|--x--------6--------4-------6------8----------------|
D|--6--------6--------6-------7------9----------------|
A|--x--------4--------6-------7------9----------------|
E|--0--------x--------4-------5------7----------------|
             




NEXT AT
\\" ....no more say it isn't so 
how she easily come, and she easy go 
please don't tell her that i've been meaning to miss her..\\"  

e|--5------7-----4-----4------5------4----------------|
B|--5------7-----4-----5------5------4----------------|
G|--6------8-----4-----6------6------8----------------|
D|--7------9-----6-----6------7------9----------------|
A|--7------9-----6-----4------7------9----------------|
E|--5------7-----4------------5------7----------------|
   


NEXT, WHEN HE SINGS \\" ... Because i dont.....\\" 
e|--x----0-------x----4-----x----4---x---5---7--------|
B|--x----0-------x----5-----x----4---x---5---7--------|
G|--x----x-------x----6-----x----4---x---6---8--------|
D|--2/6--6------2/6---6-----x----6---x---7---9--------|
A|--x----x-------x----4----2/6---6--6/7--7---9--------|
E|--x----0-------x----x-----x----4---x---5---7--------|


NEXT AT 
\\" she was the girl with the broadest shoulders 
But she would die before i crawled over them 
she is taller than i am 
she knew i wouldn't mind the view there 
or the altitude with a mouth full of air 
she let me down and doubt came out until the now became later...\\"  
(2x)
e|--0--------4--------4-------5------7----------------|
B|--0--------5--------4-------5------7----------------|
G|--x--------6--------4-------6------8----------------|
D|--6--------6--------6-------7------9----------------|
A|--x--------4--------6-------7------9----------------|
E|--0--------x--------4-------5------7----------------|
             


NEXT, HE SINGS
\\" ...say that it isn't so 
how she easily come, how she easy go 
please don't tell her cause she don't really need to know..\\"  
e|--5------7-----4-----4------5------2----------------|
B|--5------7-----4-----5------5------2----------------|
G|--6------8-----4-----6------6------3----------------|
D|--7------9-----6-----6------7------4----------------|
A|--7------9-----6-----4------7------4----------------|
E|--5------7-----4------------5------2----------------|
   


CHORUS
NEXT, WHEN HE SINGS 
\\" ...that i'm crazy like the rest of us 
and i'm crazier when i'm next to her\\" 
(2x) 
e|--0--------4--------4-------5------7----------------|
B|--0--------5--------4-------5------7----------------|
G|--x--------6--------4-------6------8----------------|
D|--6--------6--------6-------7------9----------------|
A|--x--------4--------6-------7------9----------------|
E|--0--------x--------4-------5------7----------------|


THIS IS WHERE HE PLAYS THE SOLO... doo doo doo doo doo..
e|--x----0-------x----4-----x----4---x---5---7--------|
B|--x----0-------x----5-----x----4---x---5---7--------|
G|--x----x-------x----6-----x----4---x---6---8--------|
D|--2/6--6------2/6---6-----x----6---x---7---9--------|
A|--x----x-------x----4----2/6---6--6/7--7---9--------|
E|--x----0-------x----x-----x----4---x---5---7--------|


NEXT AT
\\" so why after the all of everything that came and went 
I care enough to still be singing of the bitter end and broken eras 
i told you i don't but 
i am only trying to be the best with my attempt 
To cure the rest is sure to lay me ease 
The plural hurts of the words of reverse psychology 
that's....\\" 
(2x)
e|--0--------4--------4-------5------7----------------|
B|--0--------5--------4-------5------7----------------|
G|--x--------6--------4-------6------8----------------|
D|--6--------6--------6-------7------9----------------|
A|--x--------4--------6-------7------9----------------|
E|--0--------x--------4-------5------7----------------|
             

NEXT AT
\\" ...easier said, easier than done 
please don't dare to tell her what i've become 
please don't mention all the attention i have drawn 
please don't bother cause she'll feel guilty when i'm gone...\\"  
(2x)
e|--5------7-----4-----4------5----|  |------2--------|
B|--5------7-----4-----5------5----|  |------2--------|
G|--6------8-----4-----6------6----|  |------3--------|
D|--7------9-----6-----6------7----|  |------4--------|
A|--7------9-----6-----4------7----|  |------4--------|
E|--5------7-----4------------5----|  |------2--------|
   

CHORUS
\\" ..because i'm crazy like the rest of us 
but i'm crazier when i'm next to her 
and it's amazing how she's so self-assured 
but i know she'd hate me if she knew my words 
do i hurt anymore 
do i hurt, well...\\"  
(4x) 
e|--0--------4--------4-------5------7----------------|
B|--0--------5--------4-------5------7----------------|
G|--x--------6--------4-------6------8----------------|
D|--6--------6--------6-------7------9----------------|
A|--x--------4--------6-------7------9----------------|
E|--0--------x--------4-------5------7----------------|



Endning
\\" i don't................ i don't.................i don't 
e|--x----0-------x----4-----x----4---x---5---7------0--|
B|--x----0-------x----5-----x----4---x---5---7------0--|
G|--x----x-------x----6-----x----4---x---6---8------x--|
D|--2/6--6------2/6---6-----x----6---x---7---9------6--|
A|--x----x-------x----4----2/6---6--6/7--7---9------x--|
E|--x----0-------x----x-----x----4---x---5---7------0--|





Thats it.... pretty easy.  Sorry if it was confusing.
This is my first Posting...Never had guitar lessons.. i dont even 
know how to read chords. I just figured how to read tabs
about a month ago, so i apologize if there are any errors.
Let me know how if it works or Not... email me.  GOOD OR
Bad... constructive criticism is appreciative.  ThaNKSSSS