Archive, j >> jason mraz

rainbow connection tab

 Artist- Jason Mraz
Tabbed by - Richard Kelleher
E-Mail - Island_buddah@yahoo.com

well ok ive seen the other tab for this song and there was a chord or 2
missing...so i decided to make a tab from what ive seen on youtube
i dont think its 100% correct but i know its really close...feel free
to make any corrections on comment box or just email me....hope u like
it. enjoy xD

this is the link where u can see jason playing it...feel free to make any corrections.

http://www.youtube.com/watch?v=ggdoi0rgSjI&feature=related

Intro

e----------------------|
b----------------------|
g------6--6------7~----| play 2x
d----7--7--7---7-------|
a------------5---------|
E--5-------------------|

Verse 1(chords)

\\" why are there so many...songs about rainbows\\" 

e--5--2--2--0--|
b--5--2--3--0--|
g--6--2--2--2--|
d--7--4--4--2--|
a--7--4--2--1--|
E--5--2--2--0--|

Bridge

he finger picks the first chord then strums it a few times. then
he switches to the next cord...im not sure if the 2nd cord is 100% correct
but it sounds very close.

\\" and whats so amazing\\" 

e--------5--4--|
b-----7--7--5--|
g----6---6--4--|
d---7----7--6--|
a--5-----5--4--|
E--------5--4--|

Chorus

\\" and some day we'll find it, the rainbow connection\\" 

e--2--0--5--2--|
b--2--0--5--2--|
g--3--2--6--2--|
d--4--2--7--4--|
a--4--1--7--4--|
E--2--0--5--2--|

\\" the lovers, the dreamers, and me.\\" 

e--2--0--5--|
b--2--0--5--|
g--3--2--6--|
d--4--2--7--|
a--4--1--7--|
E--2--0--5--|

ending

\\" ...and me\\" 

e----------------------                     e--2--|
b----------------------                     b--2--|
g------6--6------7~---- play 3x then end on g--2--|
d----7--7--7---7-------                     d--2--|
a------------5---------                     a--0--|
E--5-------------------                     E--x--|


ok so this is basically it...just repeat the process and figure out the rythem...so i
u enjoy my tab...and please rate me xD