Archive, j >> jason mraz

sleeping to dream tab

 Capo 2nd fret

All chords relative to capo

This is an awesome song, I can’t figure out the just a little lullaby part so please 
me if you can find that part.  The rest should be very accurate.  Enjoy
Shabaz14@hotmail.com


Intro/Verse/Chorus
--3—(3)--------------------|
--3--3---------------------|
--0--0---------------------|
--0--2---------------------|
--2--3---------------------|
--3--x---------------------|

Pre-chorus
			<-- this part 2x then (what I can’t keep):
--—0-----------0----------------------------------|
---1-----1-----1---1-------------------------3----|
---0-----0-----2---0-------------------------0----|
---2-----0-----2---2-------------------------4----|
---3--2--2--2--0---3-------------------------5----|
---x----------------------------------------------|

Chorus
		End of chorus(Im so tired…):
--3—(3)--------------------------1----------------|
--3--3---------------------------1----------------|
--0--0---------------------------2----------------|
--0--2---------------------------3----------------|
--2--3---------------------------3----------------|
--3--x-------------------------0h1----------------|