Archive, j >> jason mraz

the world as i see it tab

 Jason Mraz the world as I see it                 H=hold note a little longer
Chords

intro
                 H                            H
e|---------------------------------------------------------------------------|
B|---3-----------3--------------3-------------3------------------------------|
G|------3------------3--------------3---------------3------------------------|
D|----------5-------------5--------------5----------------5------------------|
A|---------------------------------------------------------------------------|
E|---------------------------------------------------------------------------|
                    H                            H
e|---------------------------------------------------------------------------|
B|----1-------------1-------------1--------------1---------------------------|
G|---------2-------------2--------------2--------------2---------------------|
D|--------------3-------------3--------------3----------------3--------------|
A|---------------------------------------------------------------------------|
E|---------------------------------------------------------------------------|-
                                                    x2
                    

                    H                                   H
e|---10-------------10--------------10-----------------10--------------------|
B|-------11-------------11----------------11-----------------11--------------|
G|------------12------------12----------------12------------------12---------|
D|---------------------------------------------------------------------------|
A|---------------------------------------------------------------------------|
E|---------------------------------------------------------------------------|

                       H                                  H
e|-----8---------------8-----------------8----------------8-------------------|
B|---------10--------------10-----------------10--------------10-------------|
G|--------------10--------------10----------------10--------------10---------|
D|---------------------------------------------------------------------------|
A|---------------------------------------------------------------------------|
E|---------------------------------------------------------------------------|
                                                                      x2


Cm                            Bb
The world as I see it, is a remarkable place
Cm                                Bb
A beautiful house in a forest, of stars in outer space.
 Eb                            F                         Bb      Gm
 From a birds eye view, I can see it has a well-rounded personality
  Eb                            F            Gm
 From a birds eye view, I can see we are family.


Cm
It’s not hard for me to love you
 Hard for me to love you
Bb
 No it’s not a difficult thing.
           Cm
 It’s not hard for me to love you
                           Bb
 Hard for me to love you Because you are the world to me.


Cm                          Bb
 Yeah the world as I see it, is a remarkable place
Cm                                Bb
 Every man makes a difference And every mothers child is a saint
 Eb                            F                         Bb     Gm
From a birds eye view I can see, we are spiralling down in gravity
 Eb                            F             Gm
From a birds eye view I can see, you are just like me.


Cm
 It’s not hard for me to love you Hard for me to love you
Bb
No it’s not a difficult thing.
Cm
It’s not hard for me to love you Hard for me to love you
Bb
Unconditionally.

Cm
 No it’s not hard for me to love you Hard for me to love you
Bb
No it’s not a difficult thing.
Cm
It’s not hard for me to love you Hard for me to love you
Bb
Because you are the world to me.

Eb                                 F
You are the mountain, you are the rock
             Bb        F           Gm
 You are the cord and you’re the spark
Eb                                 F
 You are the eagle, you are the lark
             Bb          F          Gm
 You are the world and you’re remarkable

Eb                              F
 You’re the ocean eating the shore
               Bb     F         Gm
 You are the calm inside the storm
Eb                               
 You’re every emotion, you can endure
               F                  Gm
 You are the world, the world is yours.


Cm
 It’s not hard for me to love you Hard for me to love you
Bb
No it’s not a difficult thing.
Cm
It’s not hard for me to love you Hard for me to love you
Bb
Unconditionally.


  Cm
 It’s not hard for me to love you Hard for me to love you
Bb
No it’s not a difficult thing.
Cm
It’s not hard for me to love you Hard for me to love you
Bb
Unconditionally.



 Cm
 No it’s not hard for me to love you Hard for me to love you
Bb
No it’s not a difficult thing.
Cm
It’s not hard for me to love you Hard for me to love you
Bb
Because you are the world to me.

 Cm                           Bb
 Yeah the world as I see it, is a remarkable place


Cm x35543