Archive, j >> jason mraz

traveler intro ver2 tab

 Live intro to \\" Make it Mine\\" 

e|-------------------------------10----------------------------|
B|-(3)-5--7--8--8--10--12---12--------7----7--8--5---3---5-----|
G|-------------------------------------------------------------| 
D|-------------------------------------------------------------| x 3
A|-(2)-3--5--7--7--9---10---10---9----5----5--7--3---2---3-----|
E|-------------------------------------------------------------|

e|-------------------------10--12--12--10--------12--10--8---------------------------|
B|-5--7--8--8--10--12--12------------------12---------------12--10--8--5---3---5-----|
G|-----------------------------------------------------------------------------------| 
D|-----------------------------------------------------------------------------------| x 1, 
A|-3--5--7--7--9---10--10--9---10--10--9---10----10--9---7--10--9---7--3---2---3-----|
E|-----------------------------------------------------------------------------------|
then back to 1st line once