Archive, j >> jason mraz

who needs shelter intro ver2 tab

 e||--------------------------------------------------------------------------|
B||--9--7------------7-----------------------------7----------7--------------|
G||--------9---6--9-----6-------------6----------9---9--6--9----6------------|
D||------------------------9--7--7--9---9--7--6-------------------9--7--7--9-|
A||--------------------------------------------------------------------------|
E||--------------------------------------------------------------------------|

e||-------------------------------------------------------------------------|
B||-------------------------------------------------------------------------|
G||---6---------------------------------------------------------------------|
D||------9--7--6------------------------------------------------------------|
A||-------------------------------------------------------------------------|
E||-------------------------------------------------------------------------|