Archive, j >> jason mraz

you and i both ver2 tab

 YOU AND I BOTH
Jason Mraz

johnsantos_17@yahoo.com

Standard Tuning (EADGBE)

Verse:
was it you..

E-3-/-7---5---3-/-5--
B-3-/-8---5---5-/-7--
G-4-/-9---5---5-/-7--play 3x
D-5-/-9---5---5-/-7--
A-5-/-7---7---3-/-5--
E-3-/-0---5----------

Chorus:
coz you and i both loved...

E-3-/-7---5---3-/-5--
B-3-/-8---5---5-/-7--
G-4-/-9---5---5-/-7--play 2x
D-5-/-9---5---5-/-7--
A-5-/-7---7---3-/-5--
E-3-/-0---5----------

Adlib:

E-3-/-7---5---3-/-5--
B-3-/-8---5---5-/-7--
G-4-/-9---5---5-/-7--
D-5-/-9---5---5-/-7--
A-5-/-7---7---3-/-5--
E-3-/-0---5----------

BRIDGE:

\\" but it's ok..\\" 

E-3--5--3\-------5--5-------
B-5--7--3\3--0---5--7-------
G-5--7--0\0--0---5--7-------
D-5--7--0\---2---5--7-------
A-3--5--2\0--2---7--5-------
E-------3\2--0---5----------


E--3\---0---5--3--5---------
B--3\3--0---5--5--7---------
G--0\0--0---5--5--7---------
D--0\0--2---5--5--7---------
A--2\0--2---7--3--5---------
E--3\2--0---5---------------

End at G.

=====¤w&_17=====