Archive, j >> jason mraz

you make me high tab

 Intro

Its not all right so dont bitch about it. It sounds good enough.

e-------------------------------------------\-------------------------------|
b-------------------------------------------\-------------------------------|
g---------------------------6---------5-----\----------------8--------6-----|
d-------------5----------3--3------2--------\------6------5--5-----3--3-----|
a----8-----6-----8-----4---------3----2-----\-8---------6--------4----------|
e-------------------------------------------\----8--------------------------|


E-------------------\-------------------------------|
g-------------------\-------------------------------|
b-------------------\-------------------------------|
d---------5---------\-------------------------------|
a-----2---2---------\-------------------------------|
e---3---------------\-------------------------------|
E-------------------\-------------------------------|

Verse: basically same thing with some slaps.

e---------------------------------------------------|
g-------------x---------x----------x----------x-----|
b----------10-x-------8-x--------6-x-------5--x-----|
d-------6--6--x----5--5-x-----3--3-x----2--2--x-----|
a-----8----8--x--6----6-x---4----4-x--3----3--x-----|
e-------------x---------x----------x----------x-----|


basically same for whole some with some variations mraz does.. have some fun with it, 
new fun shit with it. it sounds good. cool progression. Peace bitchez..

~SkeeT SKeeT