Archive, k >> king

libertine intro ver2 tab

 Sweet band called king. this is their intro to the song libertine
100% correct. Drop B Tuning. Everything other than the sweep at the end is trem. picked. Enjoy!

-17--13-12-------12----------------------------12---------------12-13-|
-----------14-11---14-11--10-11-14--10-11-14-11--11-14--10-11-14------|
----------------------------------------------------------------------|
----------------------------------------------------------------------|
----------------------------------------------------------------------|
----------------------------------------------------------------------|

-17-13---------------------------------------------------------------|
------15-------------------------------------------------------------|
-------14------------------------------------------------------------|
--------15-----------------------------------------------------------|
---------17----------------------------------------------------------|
---------------------------------------------------------------------|x2