Archive, k >> kisschasy

3.60

perfect way to meet ver2 tab

 My first tab.
I think its pretty much right.

VERSE 1
E |------------------------------------------|
B |------------------------------------------|
G |------------------------------------------|
D |---4--4---6--6---8\-----------------------| x 7
A |---4--4---6--6---8\-----------------------|
D |---4--4---6--6---8\-----------------------|
     \\" Two hours 'til doors..\\" 

E |------------------------------------------|
B |------------------------------------------|
G |------------------------------------------|
D |---4--4---6--6---8--8-8-8888--------------|
A |---4--4---6--6---8--8-8-8888-(let ring &--|
D |---4--4---6--6---8--8-8-8888--feedback)---|
   \\" ..how we spread the word..\\" 

E |------------------------------------------|
B |------------------------------------------|
G |------------------------------------------|
D |-----------------8888-4444-66666666-------|
A |-----------------8888-4444-66666666-------|
D |-----------------8888-4444-66666666-------|
                PM [------------------]
                 \\" ..time to stop the hate..\\" 


E |------------------------------------------|
B |------------------------------------------|
G |------------------------------------------|
D |-----------------8888-4444-66666666-------|
A |-----------------8888-4444-66666666-------|
D |-----------------8888-4444-66666666-------|
                PM [-------------]

CHORUS 1 (Guitar 1)
E |-------------------------------------------------|
B |-------------------------------------------------|
G |-------------------------------------------------|
D |---8--8-8-888-4--4-4-444-1--1-1-111-6--6-6-666---| x 2
A |---8--8-8-888-4--4-4-444-1--1-1-111-6--6-6-666---|
D |---8--8-8-888-4--4-4-444-1--1-1-111-6--6-6-666---|

(Guitar 2)
E |-------------------------------------------------|
B |--------9----------9------------9----------------|
G |-------------------------------------------8-----|
D |-----10---------10-----------10---------10-------| x 2
A |-------------------------------------------------|
D |-------------------------------------------------|

E |------------------------------------------|
B |------------------------------------------|
G |------------------------------------------|
D |---4--4---6--6---8\-----------------------| x 2
A |---4--4---6--6---8\-----------------------|
D |---4--4---6--6---8\-----------------------|

Repeat VERSE

CHORUS 2 (Guitar 1)
E |-------------------------------------------------|
B |-------------------------------------------------|
G |-------------------------------------------------|
D |---8--8-8-888-4--4-4-444-1--1-1-111-6--6-6-666---| x 4
A |---8--8-8-888-4--4-4-444-1--1-1-111-6--6-6-666---|
D |---8--8-8-888-4--4-4-444-1--1-1-111-6--6-6-666---|

(Guitar 2)
E |-------------------------------------------------|
B |--------9----------9------------9----------------|
G |-------------------------------------------8-----|
D |-----10---------10-----------10---------10-------| x 4
A |-------------------------------------------------|
D |-------------------------------------------------|


SOLO
(Guitar 1 under solo)
E |------------------------------------------|
B |------------------------------------------|
G |------------------------------------------|
D |---4--4---6--6---8--8-8-8-888-------------| x 3
A |---4--4---6--6---8--8-8-8-888-------------|
D |---4--4---6--6---8--8-8-8-888-------------|

E |------------------------------------------|
B |------------------------------------------|
G |------------------------------------------|
D |---4--4---6--6---8--8-8-8888--------------|
A |---4--4---6--6---8--8-8-8888-(let ring &--|
D |---4--4---6--6---8--8-8-8888--feedback)---|

E |------------------------------------------|
B |------------------------------------------|
G |------------------------------------------|
D |-----------------8888-4444-66666666-------|
A |-----------------8888-4444-66666666-------|
D |-----------------8888-4444-66666666-------|
                PM [------------------]

E |------------------------------------------|
B |------------------------------------------|
G |------------------------------------------|
D |-----------------8888-4444-666666---------|
A |-----------------8888-4444-666666-(pause)-|
D |-----------------8888-4444-666666---------|
                PM [---------]


Repeat CHORUS 2

OUTRO
E |------------------------------------------|
B |------------------------------------------|
G |------------------------------------------|
D |---4--4---6--6---8\-----------------------| x 4
A |---4--4---6--6---8\-----------------------|
D |---4--4---6--6---8\-----------------------|

 
perfect way to meet ver2 tab
Rated: 3.60Reviews: 780