Archive, l >> lamb of god

again we rise btab

 Artist-Lamb Of God
Song- Again We Rise
Album- Sacrament
Tabber- Satan Man
Tabbers Email- morbid_damnation666@hotmail.com
Tuning- DADG [Drop D]

Intro
G|------------------------|
D|------------------------|
A|------------------------|
D|-0----------------0-0-0-|

Chorus x3
G|-------------------------------------------|
D|-------------------------------------------|
A|-5h8p5-------5h8p5-------5h8p5-------5h8p5-|
D|-------0-0-0-------0-0-0-------0-0-0-------|

G|-------------------------------------------|
D|-------------------------------------------|
A|-4h7p4-------4h7p4-------6h9p6-------6h9p6-|
D|-------0-0-0-------0-0-0-------0-0-0-------|

Pre Verse
G|-------------------------------------------|
D|-------------------------------------------|
A|-5h8p5-------5h8p5-------5h8p5-------5h8p5-|
D|-------0-0-0-------0-0-0-------0-0-0-------|

G|-------------------|
D|-------------------|
A|-4h7p4-------4h7p4-|
D|-------0-0-0-------|

Verse x2
G|--------------------------------------------------------------------------|
D|--------------------------------------------------------------------------|
A|------------13-12-------------13-12----------15-13-------------13-12------|
D|-0-0-0-0--12-------0-0-0-0--12------0-0-0-13-------0-0-0-0--12------0-0-0-|

G|-------------------------|
D|-------------------------|
A|-------------3-----3-----|
D|-6p0-6p0-6p0---5-4---5-4-|

G|--------------------------------------------------------------------------|
D|--------------------------------------------------------------------------|
A|------------13-12-------------13-12----------15-13-------------13-12------|
D|-0-0-0-0--12-------0-0-0-0--12------0-0-0-13-------0-0-0-0--12------0-0-0-|

G|-------------------------|
D|-------------------------|
A|-5-5-5-5-5-5-6-6-6-6-6-6-|
D|-------------------------|

Chorus x2
Pre Verse
Verse x2
Chrous x2

Bridge
G|---------------------------------------------------------|
D|---------------------------------------------------------|
A|-------------------4h7p4--------6h9p10-------------------|
D|-0-0-0-0-0-0-0-0-0-------0-0-0---------0-0-0-0-0-0-1---1-|


G|-------------------------------------------------|
D|-------------------------------------------------|
A|-------------------5h8p5-------------------5h8p5-|
D|-0-0-0-0-0-0-0-0-0-------0-0-0-0-0-0-0-0-0-------|

G|---------------------------------------------------------|
D|---------------------------------------------------------|
A|-------------------4h7p4--------6h9p10-------------------|
D|-0-0-0-0-0-0-0-0-0-------0-0-0---------0-0-0-0-0-0-1---1-|

Solo
G|-------------------------------------------------------------------------|
D|-------------------------------------------------------------------------|
A|-------------------------------------------------------------------------| x3
D|-0-0-0-0-0-0-0-0-0-0-0-0-0-0-0-0-0-0-0-0-0-0-0-0-0-0-0-0-0-0-0-0-0-0-0-0-|

Verse

Bridge 2
G|-------------------------------------------------------------------------|
D|-------------------------------------------------------------------------|
A|-------------------------------------------------------------3-----3-----|
D|-0-0-0-0--0-0-0-0--0-0-0-0-0-0--0-0-0-0--0-0-0-0-6p0-6p0-6p0---5-4---5-4-|

G|-------------------------------------------------------------------------|
D|-------------------------------------------------------------------------|
A|-------------------------------------------------5-5-5-5-5-5-6-6-6-6-6-6-|
D|-0-0-0-0--0-0-0-0--0-0-0-0-0-0--0-0-0-0--0-0-0-0-------------------------|

Chorus x2
Bridge x2

Bridge 2
G|-------------------------------------------------------------------------|
D|-------------------------------------------------------------------------|
A|-------------------------------------------------------------3-----3-----| x8
D|-0-0-0-0--0-0-0-0--0-0-0-0-0-0--0-0-0-0--0-0-0-0-6p0-6p0-6p0---5-4---5-4-|

G|--------|
D|--------|
A|--------|
D|-0-0-0-0| 

Related Files