Archive, l >> lamb of god

hourglass ver2 tab

 Lamb Of god
Hourglass
Ashes of the Wake

Tabbed By-Mr.Guillermo

K.e.y.

h-Hammer on
p-pull of
br-bend & release
/-slide
*-Palm Mute
------------

Ok, obviously no one can tab out this song correctly, so looks like I'm going to have to 
it.

NOTE: THIS SONG IS NOT EASY< Its Hard, It will take a while to get down, but is super 
to play, & to impress your friends. And if you get it down in a day or less, then your 
a beast, but i highly doubt that. ;)

Tuning- Drop D (D,a,d,g,b,e)

 Intro
|--------------------------------------|
|--------------------------------------|
|--------------------------------------|
|--------------------------------------|
|-----------7h8------8h10--------------|
|-00-0-00-0-----00-0------00-0-3-7-6-2-|
  ** * ** *     ** *      ** *

|----------------------------------------|
|-----------------------------------10p9-|
|------------------------------10p9------|
|----------------------------------------|
|-----------7h8------8h12----------------|
|-00-0-00-0-----00-0------00-0-----------|
  ** * ** *     ** *      ** *
|--------------------------------------|
|--------------------------------------|
|--------------------------------------|
|--------------------------------------|
|-----------7h8------8h10--------------|
|-00-0-00-0-----00-0------00-0-3-7-6-2-|
  ** * ** *     ** *      ** *
|---------------------------------------|
|---------------------------------------|
|---------------------------------------|
|---------------------------------4h5p4-|   (x2)
|-----------6p5------5p4----------------|
|-00-0-00-0-----00-0-----7-5-00-0-------|
  ** * ** *     ** *         ** *
--------------------------------------------------------------------

|-------------|-----------------------------------|
|-------------|-----------------------------------|
|-------------|-----------------------------------|
|-------Pause-|-----------------4h5p4-------8-7-6-|
|-------------|-------6p5-------------------------|
|-0-0-0-------|-0-0-0-----0-7-5-------0-0-0-------|
  * * *         * * *     *           * * *
|-------------------------------|----------------------------------|
|-------------------------------|----------------------------------|
|-------------------------------|----------------------------------|
|-------------------------------|----------------------------------|
|-------6p5-----5p4-------------|-------6p5------------------------|
|-0-0-0-----0-0-----0-0-0-0-0-0-|-0-0-0-----0-5-0-4br--0-0-0-8-5-4-|
  * * *     * *     * * * * * *   * * *     *   *      * * *
|-------------------------------------------------------------|
|-------------------------------------------------------------|
|-------------------------------------------------------------|
|-------------------------------------------4h5p4-------8-7-6-|
|-------6h5-----5h4---------------6h5-------------------------|
|-0-0-0-----0-0-----0-0-0-0-0-0-0-----0-7-5-------0-0-0-------|
  * * *     * *     * * * * * * *     *           * * *
|------------------------------------------------------------------|
|------------------------------------------------------------------|
|------------------------------------------------------------------|
|------------------------------------------------------------------|
|-------6h5-----5h4--------------6h5-------------------------------|
|-0-0-0-----0-0-----0-0-0-0-0-0-----0-5-0-4br--0-0-0-8-5-4-0-1-3-1-|
  * * *     * *     * * * * * *     *   *      * * *       *
-----------------------------------------------------------------------

 Riff
|----------------------------------------|
|----------------------------------------|
|----------------------------------------|
|-----------------------------------10p8-|
|------13--10h12------13--10h12----------|
|-00-0---0-------00-0---0-------88-8-----|
  ** *   *       ** *   *       ** *
|--------------------------------------------|
|--------------------------------------------|
|--------------------------------------------|
|--------------------------------------------|
|------13--10h12---------13-12---------------|
|-00-0---0-------00-0-10-------10-9h10p9-6-5-|
  ** *   *       ** *  * *
|----------------------------------------|
|----------------------------------------|
|----------------------------------------|
|-----------------------------------10p8-|
|------13--10h12------13--10h12----------|
|-00-0---0-------00-0---0-------88-8-----|
  ** *   *       ** *   *       ** *
|------------------------------------------|
|------------------------------------------|
|------------------------------------------|
|------------------------------------------|
|-----13--10h12---------13-12-10-7h8p7-5-4-|
|-00-0--0-------00-0-12--------------------|
  ** *  *       ** *  * *
|----------------------------------------|
|----------------------------------------|
|----------------------------------------|
|-----------------------------------10p8-|
|------13--10h12------13--10h12----------|
|-00-0---0-------00-0---0-------88-8-----|
  ** *   *       ** *   *       ** *
|--------------------------------------------|
|--------------------------------------------|
|--------------------------------------------|
|--------------------------------------------|
|------13--10h12---------13-12---------------|
|-00-0---0-------00-0-10-------10-9h10p9-6-5-|
  ** *   *       ** *  * *
|----------------------------------------|
|----------------------------------------|
|----------------------------------------|
|-----------------------------------10p8-|
|------13--10h12------13--10h12----------|
|-00-0---0-------00-0---0-------88-8-----|
  ** *   *       ** *   *       ** *
|------------------------------------------|
|------------------------------------------|
|------------------------------------------|
|--------------------------------------5/8-|
|-----13--10h12---------13-12-10-7h8p7-3/6-|
|-00-0--0-------00-0-12--------------------|
  ** *  *       ** *  * *

-------------------------------------------------------------------

|-------------------------------------------------------------|
|-------------------------------------------------------------|
|-------------------------------------------------------------|
|-----8---5/7---8---5/7---------------8---5/7-10-10--10-10----|
|-----6---3/5---6---3/5---------------6---3/5--8--8---6--6--0-|
|-0-0---0-----0---0-----0-0-0-0-0-0-0---0-----------0-------0-|
  * *   *     *   *     * * * * * * *   *           *

|------------------------------------------------------------|
|------------------------------------------------------------|
|------------------------------------------------------------|
|-----8---5/7---8---5/7---------------8---5/7----------------| (x2)
|-----6---3/5---6---3/5---------------6---3/5--3-3---1-1--0--|
|-0-0---0-----0---0-----0-0-0-0-0-0-0---0------3-3-0-1-1--0--|
  * *   *     *   *     * * * * * * *   *          *
--------------------------------------------------------------------


|---------------------------------------------------------|
|---------------------------------------------------------|
|---------------------------------------------------------|
|-----7-------------7-------------------------------------|
|-5-6-----------5-6-----------5-6-4---------5-6-3---------|
|-------0-0-0-0-------0-0-0-0-------0-0-0-0-------0-0-0-0-|
        * * * *       * * * *       * * * *       * * * *

|--------------------------------------------------------------|
|--------------------------------------------------------------|
|--------------------------------------------------------------|
|-----7-------------7------------------------------------------|
|-5-6-----------5-6-----------5-6-4---------5-6-3--------------|
|-------0-0-0-0-------0-0-0-0-------0-0-0-0--------6-5-3-5-3-1-|
        * * * *       * * * *       * * * *        ^  Fast  ^

|---------------------------------------------------------|
|---------------------------------------------------------|
|---------------------------------------------------------|
|-----7-------------7-------------------------------------|
|-5-6-----------5-6-----------5-6-4---------5-6-3---------|
|-------0-0-0-0-------0-0-0-0-------0-0-0-0-------0-0-0-0-|
        * * * *       * * * *       * * * *       * * * *
|--------------------------------------------------|
|--------------------------------------------------|
|--------------------------------------------------|
|-----7-------------7------------------------------|
|-5-6-----------5-6-----------5-6-4---------5-6-3--|
|-------0-0-0-0-------0-0-0-0-------0-0-0-0--------|
        * * * *       * * * *       * * * *
-------------------------------------------------------------------------

|----------------------------------------------------------|
|----------------------------------------------------------|
|-------9---------------9----------------------------------|
|---7-8-7-----------7-8-7-----------7-8-6-----------7-8-5--|
|---5-6-------------5-6-------------5-6-4-----------5-6-3--|
|-0-------0-0-0-0-0-------0-0-0-0-0-------0-0-0-0-0--------|
  *       * * * * *       * * * * *       * * * * *
|---------------------------------------------------------------------|
|---------------------------------------------------------------------|
|-------9---------------9---------------------------------------------|
|---7-8-7-----------7-8-7-----------7-8-6-----------7-8-5-------------|
|---5-6-------------5-6-------------5-6-4-----------5-6-3-------------|
|-0-------0-0-0-0-0-------0-0-0-0-0-------0-0-0-0-0-------6-5-3-5-3-1-|
  *       * * * * *       * * * * *       * * * * *
|----------------------------------------------------------|
|----------------------------------------------------------|
|-------9---------------9----------------------------------|
|---7-8-7-----------7-8-7-----------7-8-6-----------7-8-5--|
|---5-6-------------5-6-------------5-6-4-----------5-6-3--|
|-0-------0-0-0-0-0-------0-0-0-0-0-------0-0-0-0-0--------|
  *       * * * * *       * * * * *       * * * * *
|-----------------------------------------------------------|
|-----------------------------------------------------------|
|-------9---------------9-----------------------------------|
|---7-8-7-----------7-8-7-----------7-8-6-----------7-8-5---|
|---5-6-------------5-6-------------5-6-4-----------5-6-3---|
|-0-------0-0-0-0-0-------0-0-0-0-0-------0-0-0-0-0---------|
  *       * * * * *       * * * * *       * * * * *
Continued From top...
|-------------------------|
|-------------------------|
|-------------------------|
|-------------------------|
|-------------6-5-4-8-6-5-|
|-6-5-4-5-4-3-------------|

The Amazing Riff (Believe me this is how you play it, I have killadelphia, Will Adler 
you how to play it, This is it, or really close to it)

|------------------|-----------------|-----------------|-----------------|
|------------------|-----------------|-----------------|-----------------|
|------------------|-----------------|-----------------|-----------------|
|------------------|---------11------|-----------------|-----------------|
|---------12-------|-----------12-13-|---------12------|--------13-12-11-|
|-0-12-13----13-12-|-0-12-13---------|-0-12-13---13-12-|-0-13-10---------|
  *  *  *     *  *   *  *  *           *  *  *    *  *   *  *  *
|------------------|-----------------|-----------------|-------------|
|------------------|-----------------|-----------------|-------------|
|------------------|-----------------|-----------------|-------------|
|------------------|---------11------|-----------------|-------------|
|---------12-------|-----------12-13-|---------12------|-------------|
|-0-12-13----13-12-|-0-12-13---------|-0-12-13---13-12-|-5-8-4-7-6-3-| (x4)
  *  *  *     *  *   *  *  *           *  *  *    *  *   * * * * * *
---------------------------------------------------------------------------

|-----------------|------------------|-----------------|
|-----------------|------------------|-----------------|
|-----------------|------------------|-----------------|
|-----------------|------------------|-----------------|
|-0---------------|--1---------------|--3--------------|
|-0--5-8-4-7-6-3--|--1--5-8-4-7-6-3--|--3--5-8-4-7-6-3-|
     * * * * * *        * * * * * *        * * * * * *
|-----------------------|
|-----------------------|
|-----------------------|
|-----------------------|(x4)
|-5h6p5-8-6-------------|
|-----------5-8-4-7-6-3-|
            * * * * * *
-------------------------------------------------------------------------
 BreakDown
|-------------------------------|
|-------------------------------|
|-------------------------------|
|-------------------------------| (x4)
|-------------------------------|
|-0-0-0-0-0-0-0-0-0-0-0-0-0-0-0-|
  * * * * * * * * * * * * * * *
-------------------------------------------------------------------------

|-------|
|-------|
|-------|
|-------|
|-------|
|-0-12/-|
  *
 Continued From top Slide
|------------------|-----------------|-----------------|-----------------|
|------------------|-----------------|-----------------|-----------------|
|------------------|-----------------|-----------------|-----------------|
|------------------|---------11------|-----------------|-----------------|
|---------12-------|-----------12-13-|---------12------|--------13-12-11-|
|-0-12-13----13-12-|-0-12-13---------|-0-12-13---13-12-|-0-13-10---------|
  *  *  *     *  *   *  *  *           *  *  *    *  *   *  *  *
|------------------|-----------------|-----------------|-------------|
|------------------|-----------------|-----------------|-------------|
|------------------|-----------------|-----------------|-------------|
|------------------|---------11------|-----------------|-------------| (x6)
|---------12-------|-----------12-13-|---------12------|-------------|
|-0-12-13----13-12-|-0-12-13---------|-0-12-13---13-12-|-5-8-4-7-6-3-|
  *  *  *     *  *   *  *  *           *  *  *    *  *   * * * * * *

Ring On

|---------|
|---------|
|---------|
|---------|
|-0~~~~~~-|
|-0~~~~~~-|

Enjoy.

Lamb of God is the Best METALCORE Band EVER!!!LOG FOR LIFE.