Archive, l >> lesley roy

thinking out loud ver2 crd

 Lesley Roy - Thinking Out Loud

Standard tuning


F5 - 13xxxx or 133xxx


Intro: Bb - F5 - Dm - C      x2

e|------------------------|-------------------------|
B|------------------------|-------------------------|
G|--10-9-10-9--10---10-9--|--10-9-10-9--10---10-9\--|
D|------------------------|-------------------------|
A|------------------------|-------------------------|
E|------------------------|-------------------------|


Verse:
Bb                  Dm
I’ve been losing my mind
                   Bb
I’ve been living a lie
                   Dm
I’ve been running away
       C
For so long
  Bb              Dm
I try to put on a face
             Bb
And cover my heart
                   Dm
But I’m needing it now
   C       Bb
So bad


Chorus:
Bb      F
I don’t know
      Dm
How I feel
          C
Maybe I’m mad
             Bb
Or maybe I’m proud
               F
Can’t find the truth
               Dm
Can’t speak my mind
                     C
Don’t know what I'll say
                      Bb - F5 - Dm - C
I’m just thinking out loud

e|------------------------|------------------------|
B|------------------------|------------------------|
G|--10-9-10-9--10---10-9--|--10-9-10-9--10---10-9--|
D|------------------------|------------------------|
A|------------------------|------------------------|
E|------------------------|------------------------|

                Bb - F5 - Dm - C
Thinking out loud


Verse:
Bb              Dm
No, no I cant explain
                   Bb
What’s happened to me
                Dm
I feel like I’m right
    C
And wrong
Bb                   Dm
Inside everything’s upside down
             Bb
Everything’s spinning around
         Dm          C
And it’s freaking me out


Chorus:
Bb      F
I don’t know
      Dm
How I feel
          C
Maybe I’m mad
             Bb
Or maybe I’m proud
               F
Can’t find the truth
               Dm
Can’t speak my mind
                     C
Don’t know what I'll say
                      Bb
I’m just thinking out loud


Bridge:
    F         C
If only for a day
Dm           Bb
I could be free
  F                   C
I bet you’d feel the same
Dm          Bb
If you were me
    F             C
I’m gonna spit it out
(break)  Bb - F5 - Dm - C
Just let go

Bb - F5 - Dm - C

e|------------------------|------------------------|
B|------------------------|------------------------|
G|--10-9-10-9--10---10-9--|--10-9-10-9--10---10-9--|
D|------------------------|------------------------|
A|------------------------|------------------------|
E|------------------------|------------------------|


Bb                  Dm
I’ve been losing my mind
                   Bb
I’ve been living a lie
                   Dm
I’ve been running away
       C       Bb
For so long


Chorus/Outro:
Bb      F
I don’t know
      Dm
How I feel
          C
Maybe I’m mad
             Bb
Or maybe I’m proud
               F
Can’t find the truth
               Am
Can’t speak my mind
                     Bb
Don’t know what I'll say
         C            Bb      F
I’m just thinking out loud

e|-------------|
B|-------------|
G|-------------|
D|--/12-10-----|
A|---------12--|
E|-------------|

                      Dm      C
Yeah I’m thinking out loud

e|-------------|
B|-------------|
G|-------------|
D|--/12-10-----|
A|---------10--|
E|-------------|

             Bb
Thinking out loud
               F
Can’t find the truth
               Dm
Can’t speak my mind
                       C
I don’t know what I'll say
                      F
I’m just thinking out loud


End on F