Archive, m >> manchester orchestra

badges and badges tab

 Tabbed by: Louis d
Email:spooner954@aol.com

Tuning: Drop D (DADGBE)

the song pretty much repeats over and over.
a couple of times andy stays an extra measure or so. 
this is a really simple song.

intro and 80% of the song is this...
e|-----------------------------------------------------------|
B|-----------------------------------------------------------|
G|-----------------------------------------------------------|
D|--------0---0---0---0---0---0---0---0---0---0--------------|
A|----0h2---0------------------------------------------------|
D|--------------2--2/5--5---5---5---5---5---5----------------|x alot


right before the end of the verse, this is played:
e|-----------------------------------------------------------|
B|-----------------------------------------------------------|
G|-----------------------------------------------------------|
D|--------0---0---0---0---0---0---0---0---0---0--------------|
A|----0h2---0------------------------------------------------|
D|--------------2--2/5--0---0---0---0---0---0----------------|x alot

at the end of the song, he just alternates between these two. 

enjoy


| /  slide up
| h  hammer-on
| ~  vibrato
===============================================================================