Archive, m >> mars volta

tetragrammaton ver2 tab

 E||----------------------|----------------------|----------------------|
B||----------------------|----------------------|----------------------|
G||--4----4----6----4----|-----------------6----|--7----6---------3----|
D||----------------------|----------------------|----------------------|
A||--2-------------------|--2----3----4---------|----------------------|
E||----------------------|----------------------|------------2---------|

  
----------------------|----------------------|----------------------|
----------------------|----------------------|----------------------|
--4----3---------2----|--3----2---------3----|--4----3---------4----|
----------------------|----------------------|----------------------|
------------3---------|----------------------|------------2---------|
----------------------|------------4---------|----------------------|

  
----------------------|----------------------|------------|
----------------------|----------------------|------------|
--5----4---------1----|--2----1---------5----|--6----5----|
----------------------|----------------------|------------|
----------------------|------------3---------|------------|
------------1---------|----------------------|------------|


  
|------------------------|------------------------|-----------------------|
|------------------------|------------------------|-----------------------|
|*-----------------------|------------------------|-----------------------|
|*-----------------------|-------------8----------|--8--------------------|
|-------------------7----|--9----10---------10----|-------10----9----7----|
|---7----9----10---------|------------------------|-----------------------|


 
-----------------------|-------------------------|------------------------|
-----------------------|-------------------------|------------------------|
-----------------------|-------------------------|------------------------|
-------------8----9----|--11----12----11----9----|--8----9----11----12----|
--9----10--------------|-------------------------|------------------------|
-----------------------|-------------------------|------------------------|
  
------------------------|-----------------------|------------------------|
------------------------|-----------------------|------------------------|
------------------------|-----------------------|------------------------|
--11----9----8----------|--8--------------------|------------------------|
------------------10----|-------10----9----7----|--------7----9----10----|
------------------------|-----------------------|--10--------------------|


-----------------------|-----------------------|-------------------------|
-----------------------|-----------------------|-------------------------|
-----------------------|-----------------------|-------------------------|
--8----9----11----9----|--8----------8----9----|--11----12----11----9----|
-----------------------|-------10--------------|-------------------------|
-----------------------|-----------------------|-------------------------|

 
--------------------------|--------------------------|
--14----15----18----15----|--14----------14----------|
--------------------------|--------16----------16----|
--------------------------|--------------------------|
--------------------------|--------------------------|
--------------------------|--------------------------|

   
--------------------------|--------------------------|
--------------------------|--------------------------|
--15----------------------|--15----16----18----16----|
--------17----16----17----|--------------------------|
--------------------------|--------------------------|
--------------------------|--------------------------|


--------------------------|---------------------------||-----------------------|
--15----14----19----17----|--15----14----17-----------||-------------7----8----|
--------------------------|--------------------15----*||*-------7--------------|
--------------------------|--------------------------*||*--9-------------------|
--------------------------|---------------------------||-----------------------|
--------------------------|---------------------------||-----------------------|



----------------------|------------------------||------------------------|
--7-------------------|--10----8----7----------||-------------0h----5----|
-------7---------7----|------------------7----*||*-------0---------------|
------------9---------|-----------------------*||*--5--------------------|
----------------------|------------------------||------------------------|
----------------------|------------------------||------------------------|



-----------------------|-------------------------||-----------------------|
--0h----7--------------|--0h----5----0h----7-----||-------------0----5----|
------------------0----|------------------------*||*-------3--------------|
-------------5---------|------------------------*||*--4-------------------|
-----------------------|-------------------------||-----------------------|
-----------------------|-------------------------||-----------------------|



----------------------|-----------------------||----------------------|
--3----0--------------|--0----5----3----0-----||----------------------|
-----------------3----|----------------------*||------------0----7----|
------------4---------|----------------------*||-------5--------------|
----------------------|-----------------------||--7-------------------|
----------------------|-----------------------||----------------------|


----------------------|----------------------|----------------------|
----------------------|----------------------|----------------------|
--4----0--------------|--0----7----4----0----|------------0----6----|
-----------------5----|----------------------|-------4--------------|
------------7---------|----------------------|--5-------------------|
----------------------|----------------------|----------------------|

----------------------|----------------------|----------------------|
----------------------|----------------------|----------------------|
--4----0--------------|--0----6----4----0----|------------0----6----|
-----------------4----|----------------------|-------0--------------|
------------5---------|----------------------|--4-------------------|
----------------------|----------------------|----------------------|



----------------------|----------------------|----------------------|
----------------------|----------------------|----------------------|
--4----0--------------|--0----6----4----0----|------------0----6----|
-----------------0----|----------------------|-------0--------------|
------------4---------|----------------------|--4-------------------|
----------------------|----------------------|----------------------|


----------------------|----------------------|----------------------|
----------------------|--0-------------------|------------7----8----|
--4----0---------0----|----------------------|-------7--------------|
------------4---------|------------0---------|--9-------------------|
----------------------|----------------------|----------------------|
----------------------|-------5---------6----|----------------------|


----------------------|-----------------------|-----------------------|
--7-------------------|--10----8----7---------|------------0h----5----|
-------7---------7----|------------------7----|-------0---------------|
------------9---------|-----------------------|--5--------------------|
----------------------|-----------------------|-----------------------|
----------------------|-----------------------|-----------------------|


-----------------------|------------------------|----------------------|
--0h----7--------------|--0h----5----0h----7----|------------0----5----|
------------------0----|------------------------|-------3--------------|
-------------5---------|------------------------|--4-------------------|
-----------------------|------------------------|----------------------|
-----------------------|------------------------|----------------------|


----------------------|----------------------|----------------------|
--3----0--------------|--0----5----3----0----|----------------------|
-----------------3----|----------------------|------------0----7----|
------------4---------|----------------------|-------5--------------|
----------------------|----------------------|--7-------------------|
----------------------|----------------------|----------------------|


----------------------|----------------------|----------------------|
----------------------|----------------------|----------------------|
--4----0--------------|--0----7----4----0----|------------0----6----|
-----------------5----|----------------------|-------4--------------|
------------7---------|----------------------|--5-------------------|
----------------------|----------------------|----------------------|


----------------------|----------------------|----------------------|
----------------------|----------------------|----------------------|
--4----0--------------|--0----6----4----0----|------------0----6----|
-----------------4----|----------------------|-------0--------------|
------------5---------|----------------------|--4-------------------|
----------------------|----------------------|----------------------|


----------------------|----------------------|----------------------|
----------------------|----------------------|----------------------|
--4----0--------------|--0----6----4----0----|------------0----6----|
-----------------0----|----------------------|-------0--------------|
------------4---------|----------------------|--4-------------------|
----------------------|----------------------|----------------------|


----------------------|----------------------||-------------------------|
----------------------|--0-------------------||-------------------------|
--4----0---------0----|----------------------||*------------------------|
------------4---------|------------0---------||*------------------------|
----------------------|----------------------||---5---------------------|
----------------------|-------5---------6----||--------7p----5h----7----|


 
------------------------|----------------------|----------------------|
------------------------|----------------------|----------------------|
------------------------|----------------------|----------------------|
------------------------|----------------------|----------------------|
-------5----------------|------------5----7----|--9----7----5----5----|
--7---------7p----5h----|--7----7--------------|----------------------|


----------------------|----------------------|----------------------|
----------------------|----------------------|----------------------|
----------------------|----------------------|----------------------|
----------------------|----------------------|----------------------|
----------------------|--5-------------------|-------5----7----9----|
--7----5----7----7----|-------7----5----7----|--7-------------------|


------------------||
------------------||
-----------------*||
-----------------*||
--7----9----5-----||
------------------||

Bell