Archive, m >> maximo park

3.80

apply some pressure tab

 -------------------------------------------------------------------------------
                       APPLY SOME PRESSURE - Maxïmo Park
-------------------------------------------------------------------------------

Thanks for this tab goes to Harrison who showed me how to play this. Unfortunately, this is just the verse.

Tabbed by: Robbie
Email: robbiejh12@hotmail.com

Tuning: normal

e|-5--2-----------5--5--5--5--5----------------------------------------------|
B|-------2--5--0--7--7--7--5--5----------------------------------------------|
G|----------------7--7--7--6--6----------------------------------------------|
D|----------------7--7--7--7--7----------------------------------------------|
A|----------------5--5--5--7--7----------------------------------------------|
E|----------------5--5--5--5--5----------------------------------------------|

I'm sure you can work out the timings for that by listening to the song. 
apply some pressure tab
Rated: 3.80Reviews: 771