Archive, m >> michael buble

the way you look tonight solo tab

 02:36 – 03:12

e]--------------------------------------------------------------------|
B]--------------------------------------------------------------------|
G]------121212---14/16-------------9—12/13---131313---15/17-----------|
D]--6/8-----------------8/10-----10--------------------------14-15-17-|
A]--------------------------------------------------------------------|
E]--------------------------------------------------------------------|


e]--------------------------------------------------------------------|
B]—14-14-14-18----------------------16/18-181818-20-------------------|
G]--------------15-17-18-17-15-17-------------------15—---------------|
D]--------------------------------------------------------------------|
A]--------------------------------------------------------------------|
E]--------------------------------------------------------------------|


e]----------------------------------------------------------|
B]----------------------------------------------------------|
G]-15-17---18-17-18-17-18-17-18-17-17/15--------13-15-------|
D]-------------------------------------------13-------------|
A]----------------------------------------------------------|
E]----------------------------------------------------------|

e]----------------------------------------------------------------|
B]----------------------------------------------------------------|
G]-17-15-17-15-17-15-17--20/16------------------------------------|
D]----------------------------13---13/17—17-17-18~--18-18-20------|
A]----------------------------------------------------------------|
E]----------------------------------------------------------------|


e]----------------------------------------------------------------|
B]--------17-17-15-13-15-13-10------------------------------------|
G]-12/15-----------------------11---------------------------------|
D]----------------------------------------------------------------|
A]----------------------------------------------------------------|
E]----------------------------------------------------------------|


Josh Hardy
sk8er_dude_josh_372@hotmail.com