Archive, m >> michael hunter

soviet connection tab

 Michael Hunter's Myspace: http://www.myspace.com/pabloslab
Michael Hunter's Official Website: http://www.olbapmusic.com/

Artist: Michael Hunter
Album: Grand Theft Auto IV
Song: Soviet Connection
Tab: A Dead Fly

Song consolidated for two guitars and one bass guitar
  
Guitar Tab (Scroll down for bass guitar)

Guitars both standard tuned 

0:00 - 0:11

Guitar 1

e|-15------11-----|-16------13-----|-15-------------|-11-------------|
B|-----13------13-|-----12------12-|---------13-----|---------12-----|
G|----------------|----------------|-----12------12-|----------------|
D|----------------|----------------|----------------|-----13------13-|
A|----------------|----------------|----------------|----------------|
E|----------------|----------------|----------------|----------------|

e|----------------|----------------|----------------|----------------|
B|----------------|----------9-----|-12-------------|----------------|
G|----------------|-----10---------|---------12-----|-----10--10--10-|
D|----------------|----------------|----------------|----------------|
A|----------------|----------------|----------------|----------------|
E|----------------|----------------|----------------|----------------|

Guitar 2

e|----------------|----------------|----------------|----------------|
B|--8-------------|----------------|----------------|----------9-----|
G|----------8-----|---------10-----|-12-------------|------8-------8-|
D|-----10------10-|--9-------------|---------10-----|--6-------------|
A|----------------|-----10------10-|-----10------10-|----------------|
E|----------------|----------------|----------------|----------------|

e|----------------|----------------|----------------|----------------|
B|----------------|----------------|----------------|----------------|
G|--8-------8-----|----------------|----------------|----------------|
D|--5---5-------5-|--6-------6---6-|--9-------------|----------------|
A|----------------|------8---------|-----10--10--10-|------8--11---8-|
E|----------------|----------------|----------------|-10-------------|

0:11 - 0:21

The bass is the only thing that plays here, but I transcribed it
for guitar in case you're not playing with a bassist

Both Guitars

e|----------------|----------------|----------------|----------------|
B|----------------|----------------|----------------|----------------|
G|----------------|----------------|----------------|----------------|
D|----------------|----------------|----------------|----------------|
A|-11-------------|----------------|-10-------------|----------------|
E|----------------|-10-------------|----------------|-9--------------|

e|----------------|----------------|----------------|----------------|
B|----------------|----------------|----------------|----------------|
G|----------------|----------------|----------------|----------------|
D|----------------|----------------|----------------|----------------|
A|----------------|-8--------------|-7--------------|----------------|
E|-8--------------|----------------|----------------|----------------|

0:21 - 0:34

Guitar one

e|----------------|----------------|----------------|----------------|
B|----------------|----------------|----------------|----------------|
G|-5----7----8----|-7----5----7----|-5----4----5----|-7----8----7----|
D|---5----5----5--|---5----5----5--|---5----5----5--|---5----5----5--|
A|----------------|----------------|----------------|----------------|
E|----------------|----------------|----------------|----------------|

e|----------------|
B|----------------|
G|-5----7---------|  Play all of this twice
D|---5----5-------|
A|----------------|
E|----------------|

Guitar two doesn't play here

0:34 - 1:00

Guitar One

Play this again only quiet or palm muted
e|----------------|----------------|----------------|----------------|
B|----------------|----------------|----------------|----------------|
G|-5----7----8----|-7----5----7----|-5----4----5----|-7----8----7----|
D|---5----5----5--|---5----5----5--|---5----5----5--|---5----5----5--|
A|----------------|----------------|----------------|----------------|
E|----------------|----------------|----------------|----------------|

e|----------------|
B|----------------|
G|-5----7---------|  Play all of this four times
D|---5----5-------|
A|----------------|
E|----------------|

Guitar two
Listen for timing
e|----------------|----------------|----------------|----------------|
B|----------------|----------------|----------------|----------------|
G|-------------5-5|-5--------------|----7-7-7-------|---------8-8-8--|
D|----------------|----------------|----------------|----------------|
A|----------------|----------------|----------------|----------------|
E|----------------|----------------|----------------|----------------|

e|----------------|----------------|
B|----------------|----------------|
G|--------7-7-7---|----------------| Play all this 4 times
D|----------------|--9-9-----------|
A|----------------|-------10-------|
E|----------------|----------------|

1:00 - 1:14

Guitar One

e|----------------|----------------|----------------|----------------|
B|----------------|----------------|-----------6----|----------------|
G|-5----7----8----|-7----5----7----|-5----4---------|-7----8----5----|
D|---5----5----5--|---5----5----5--|---5----5----5--|---5----5----5--|
A|----------------|----------------|----------------|----------------|
E|----------------|----------------|----------------|----------------|

e|----------------|
B|----------------|
G|-8----7---------|  Play all of this twice
D|---5----5-------|
A|----------------|
E|----------------|

Guitar Two
Listen for timing
e|-8v-------------|------10v-------|-----------11v--|----------------|
B|----------------|----------------|----------------|----------------|
G|----------------|----------------|----------------|----------------|
D|----------------|----------------|----------------|----------------|
A|----------------|----------------|----------------|----------------|
E|----------------|----------------|----------------|----------------|

e|-10v------------|
B|----------------|
G|----------------| Play all of this twice
D|----------------|
A|----------------|
E|----------------|

1:14 - 1:24

Guitar One
Play this quietly or palm muted
e|----------------|----------------|----------------|----------------|
B|----------------|----------------|----------------|----------------|
G|-5----7----8----|-7----5----7----|-5----4----5----|-7----8----7----|
D|---5----5----5--|---5----5----5--|---5----5----5--|---5----5----5--|
A|----------------|----------------|----------------|----------------|
E|----------------|----------------|----------------|----------------|

e|----------------|
B|----------------|
G|-5----7---------| Plays this once then pauses for a few seconds
D|---5----5-------| during that loud synth buildup
A|----------------|
E|----------------| 

Guitar two

e|----------------|----------------|----------------|----------------|
B|----------------|----------------|----------------|----------------|
G|----------------|-5--------------|-----7----------|----------10----|
D|----------------|----------------|----------------|----------------|
A|----------------|----------------|----------------|----------------|
E|----------------|----------------|----------------|----------------|

e|----------------|---------23<<<<<|----------------|----------------|
B|----------------|----------------|----------------|----------------|
G|----------8-----|--7-------------|----------------|----------------|
D|----------------|----------------|----------------|----------------|
A|----------------|----------------|----------------|----------------|
E|----------------|----------------|----------------|----------------|

1:24 - 1:50

Guitar One

e|----------------|----------------|----------------|----------------|
B|----------------|----------------|----------------|----------------|
G|-5----7----8----|-7----5----7----|-5----4----5----|-7----8----7----|
D|---5----5----5--|---5----5----5--|---5----5----5--|---5----5----5--|
A|----------------|----------------|----------------|----------------|
E|----------------|----------------|----------------|----------------|

e|----------------|
B|----------------|
G|-5----7---------| Play this four times and get louder toward the end
D|---5----5-------| 
A|----------------|
E|----------------|

Guitar Two

e|----------------|----------------|----------------|----------------|
B|----------------|----------------|----------------|----------------|
G|-------------5-5|-5--------------|----7-7-7-------|---------8-8-8--|
D|----------------|----------------|----------------|----------------|
A|----------------|----------------|----------------|----------------|
E|----------------|----------------|----------------|----------------|

e|----------------|----------------|
B|----------------|----------------|
G|--------7-7-7---|----------------| Play this once then
D|----------------|--9-9-----------|
A|----------------|-------10-------|
E|----------------|----------------|

e|----------------|----------------|----------------|----------------|
B|----------------|----------------|----------------|----------------|
G|----------------|-5--------------|-----7----------|----------10----|
D|----------------|----------------|----------------|----------------|
A|----------------|----------------|----------------|----------------|
E|----------------|----------------|----------------|----------------|

e|----------------|----------------|
B|----------------|----------------|
G|----------8-----|--7-------------|
D|----------------|----------------|
A|----------------|----------------|
E|----------------|----------------|

Play this twice, then

e|----------------|----------------|----------------|----------------|
B|----------------|----------------|----------------|----------------|
G|----------------|-5--------------|-----7----------|----------10----|
D|----------------|----------------|----------------|----------------|
A|----------------|----------------|----------------|----------------|
E|----------------|----------------|----------------|----------------|

e|--8--10--11--13-|-15-------------|
B|----------------|----------------|
G|----------------|----------------|
D|----------------|----------------|
A|----------------|----------------|
E|----------------|----------------|

1:50 - 2:16

Guitar One

e|----------------|----------------|----------------|----------------|
B|----------------|----------------|-----------6----|----------------|
G|-5----7----8----|-7----5----7----|-5----4---------|-7----8----5----|
D|---5----5----5--|---5----5----5--|---5----5----5--|---5----5----5--|
A|----------------|----------------|----------------|----------------|
E|----------------|----------------|----------------|----------------|

e|----------------|
B|----------------|
G|-8----7---------|  Play all of this four times
D|---5----5-------|
A|----------------|
E|----------------|

Guitar Two

e|-(15)-----------|---11-----------|-10-------8-----|----------------|
B|----------------|----------------|----------------|----------------|
G|----------------|----------------|----------------|----------------|
D|----------------|----------------|----------------|----------------|
A|----------------|----------------|----------------|----------------|
E|----------------|----------------|----------------|----------------|

e|----------------|----------------|----------------|-----8----------|
B|-8--------6-----|----------------|----------------|----------------|
G|----------------|-----8----------|------------7---|----------------|
D|----------------|----------------|----------------|----------------|
A|----------------|----------------|----------------|----------------|
E|----------------|----------------|----------------|----------------|

e|-11-------15----|----16----------|--20------------|
B|----------------|----------------|----------------| Play All
G|----------------|----------------|----------------| this Twice
D|----------------|----------------|----------------|
A|----------------|----------------|----------------|
E|----------------|----------------|----------------|

2:16 - 2:29

Guitar One

e|----------------|----------------|----------------|----------------|
B|----------------|----------------|----------------|----------------|
G|-5----7----8----|-7----5----7----|-5----4----5----|-7----8----7----|
D|---5----5----5--|---5----5----5--|---5----5----5--|---5----5----5--|
A|----------------|----------------|----------------|----------------|
E|----------------|----------------|----------------|----------------|

e|----------------|
B|----------------|
G|-5----7---------|  Play all of this twice
D|---5----5-------|
A|----------------|
E|----------------|

Guitar Two

e|----------------|----------------|----------------|----------------|
B|----------------|----------------|----------------|----------------|
G|-------------5-5|-5--------------|----7-7-7-------|---------8-8-8--|
D|----------------|----------------|----------------|----------------|
A|----------------|----------------|----------------|----------------|
E|----------------|----------------|----------------|----------------|

e|----------------|----------------|
B|----------------|----------------|
G|--------7-7-7---|----------------| Play this Twice
D|----------------|--9-9-----------|
A|----------------|-------10-------|

2:29 - 2:43

Guitar One

e|----------------|----------------|----------------|----------------|
B|-8----6----8----|-9----8----6----|-8----4----8----|-6----8----9----|
G|---5----5----5--|---5----5----5--|---5----5----5--|---5----5----5--|
D|----------------|----------------|----------------|----------------|
A|----------------|----------------|----------------|----------------|
E|----------------|----------------|----------------|----------------|

e|----------------|
B|-8----6---------| Play all of this twice
G|---5----5-------|
D|----------------|
A|----------------|
E|----------------|

Guitar Two

e|----------------|----------------|----------------|----------------|
B|----------------|----------------|----------------|----------------|
G|----------------|-5--------------|-----7----------|----------10----|
D|----------------|----------------|----------------|----------------|
A|----------------|----------------|----------------|----------------|
E|----------------|----------------|----------------|----------------|

e|----------------|----------------|
B|----------------|----------------|
G|----------8-----|--7-------------| Play all of this twice
D|----------------|----------------|
A|----------------|----------------|
E|----------------|----------------|

2:43 - End

Guitar Two

e|----------------|
B|----------------|
G|--5-------------|
D|----------------| Hits this note a whole bunch to end it
A|----------------|
E|----------------|






------------------------------Bass Tab--------------------------------

Bass Tuning: BADG

Drop tuning the E to a B is the only good way to play the song

0:11 - 0:21

G|----------------|----------------|----------------|----------------|
D|----------------|----------------|----------------|----------------|
A|----------------|----------------|----------------|----------------|
B|-9--------------|-3--------------|-8--------------|-2--------------|

G|----------------|----------------|----------------|----------------|
D|----------------|----------------|----------------|----------------|
A|----------------|----------------|----------------|----------------|
B|-1--------------|-6--------------|-5--------------|----------------|

0:21 - 1:01

G|----------------|----------------|----------------|----------------|
D|----------------|----------------|----------------|----------------|
A|----------------|-----3--3-------|---------3------|----------------|
B|-1--1-----------|----------------|-----------1--1-|----------------|

G|----------------|-----|
D|----------------|-----|
A|-3--3-----------|-----| Play all this six times
B|--------5h6h7h8/|/9-8-|

1:01 - 1:14

If you don't Like the way this sounds just play 1 of the notes
in a pair
G|----------------|----------------|----------------|----------------|
D|----------------|----------------|----------------|----------------|
A|-3--3-----------|------5--5------|-----------6--6-|----------------|
B|-1--1-----------|------3--3------|-----------4--4-|----------------|

G|----------------|-----|
D|----------------|-----| Play All This Twice
A|-5--5-----------|-----|
B|-3--3---5h6h7h8/|/9-8-|

1:14 - 1:24

G|----------------|----------------|----------------|----------------|
D|----------------|----------------|----------------|----------------|
A|----------------|-----3--3-------|---------3------|----------------|
B|-1--1-----------|----------------|-----------1--1-|----------------|

G|----------------|-----|
D|----------------|-----|
A|-3--3-----------|-----| Play this once then pause for that synthesizer
B|--------5h6h7h8/|/9-8-| build up

1:24 - 1:50

G|----------------|----------------|----------------|----------------|
D|----------------|----------------|----------------|----------------|
A|----------------|-----3--3-------|---------3------|----------------|
B|-1--1-----------|----------------|-----------1--1-|----------------|

G|----------------|-----|
D|----------------|-----|
A|-3--3-----------|-----| Play all this 4 times
B|--------5h6h7h8/|/9-8-| 

1:50 - 2:16

G|----------------|----------------|----------------|----------------|
D|----------------|----------------|----------------|----------------|
A|-3--3-----------|------5--5------|-----------6--6-|----------------|
B|-1--1-----------|------3--3------|-----------4--4-|----------------|

G|----------------|-----|
D|----------------|-----| Play all this 4 times
A|-5--5-----------|-----|
B|-3--3---5h6h7h8/|/9-8-|

2:16 - 2:29

G|----------------|----------------|----------------|----------------|
D|----------------|----------------|----------------|----------------|
A|----------------|-----3--3-------|---------3------|----------------|
B|-1--1-----------|----------------|-----------1--1-|----------------|

G|----------------|-----|
D|----------------|-----|
A|-3--3-----------|-----| Play all this 2 times
B|--------5h6h7h8/|/9-8-| 

2:29 - 2:42

Everything Here is Palm Muted
G|-17-17----------|----17--17------|---------17--17-|----------------|
D|----------------|----------------|----------------|----------------|
A|----------------|----------------|----------------|----------------|
B|----------------|----------------|----------------|----------------|

G|-17--17---------|-------|
D|----------------|-------| Play all this twice
A|----------8--10-|-11-10-|
B|----------------|-------|

The End!

Email questions to azlizard13@yahoo.com

Please give me credit if you use this tab for a video