Archive, m >> ministri

diritto al tetto btab

 Intro
G|------2--|------4-|
D|-4-444-4-|-4-444-4|
A|---------|--------|
E|---------|--------|

ENG:Alternate this only twice before each verse, then play only the first
ITA:Alterna questo solo due volte prima di ogni strofa, poi suona solo il primo


Verse
G|------2--|------1--|---------|
D|-4-444-4-|-2-222-2-|------2--|
A|---------|---------|-4-444-4-|
E|---------|---------|---------|

Before the chorus
G|---------|
D|------2--|
A|-4-444-4-|
E|---------|

Chorus (part one)
G|----------------|--------------------------------|
D|----------------|--------------------------------|
A|-5-5-5-5--------|-5-5-5-5---------4-4-4-4--------|
E|---------2-2-2-2|---------5-5-5-5---------2-2-2-2|

ENG:Play D-D-D-D F#-F#-F#-F# twice, and then the second part once
ITA:Suona re-re-re-re fa#-fa#-fa#-fa# due volte, e poi una volta la seconda parte

Chorus (part two)
G|------------|-------------------|
D|------------|-------------------|
A|-5-555------|-2-222-0-000-4-444-|
E|-------2-222|-------------------|

ENG:Play the part with D and F# twice, and then the second part once
ITA:Suona la parte con re e fa# due volte, e poi una volta la seconda parte

Variation \\" Diritto al tetto e non averlo\\" 
G|---------|
D|---------|
A|-----544-|
E|-22-5----|

Outro
G|------2--|
D|-4-444-4-|
A|---------|
E|---------|