Archive, m >> misc television

the thin blue line tab

 Song: Thin Blue Line Theme
Artist: Unknown
Tabber: Tye1989

kay this is the Thin Blue Line Main Theme, the ending is slightly off but overall I 
this is correct, comments or corrections go to:-
Masamune12003@gmail.com

||-/19-17-15-14-17-14----19-17-15-14-17-19-17-15-14-17-15---||
||----------------------------------------------------------||
||--------------------14----------------------------------16||
||----------------------------------------------------------||
||----------------------------------------------------------||
||----------------------------------------------------------||

||----------------||
||-14-16-17-19-16-||
||----------------||
||----------------||
||----------------||
||----------------||


||-19-17-15-14-17-14---19-17-15-14-19----------------------||
||---------------------------------------------------------||
||-------------------14------------------------------------||
||---------------------------------------------------------||
||---------------------------------------------------------||
||---------------------------------------------------------||


||-19-21-22-21-19-17-19-21---------------------------------||
||-------------------------19------------------------------||
||---------------------------------------------------------||
||---------------------------------------------------------||
||---------------------------------------------------------||
||---------------------------------------------------------||

Cheers!
Tye1989