Archive, m >> moonspell

3.70

made of storm btab

 ARTIST:MOONSPELL
MUSIC:MADE OF STORM (Darkness and Hope,2001 Century Media,Track 8 4:09)
BASS PLAYER:SÉRGIO CRESTANA
BASS TABLATURE:ANTÓNIO NARCISO (PT) Email:GOTHBASS31@VAMPIREFREAKS.COM

RIFF 1
E-5-5---------5----|
A-----8-7-5----8-7-|
D------------------|
G------------------|

RIFF 2
E-5-5-5-5-5-5-5-5---------------------3-3-3-3-3-3-3-3-5-5-5-5-5-5-5-5-|
A--------------------3-3-3-3-3-3-3-3----------------------------------|
D---------------------------------------------------------------------|
G---------------------------------------------------------------------|

RIFF 3
E-------
A-3...--
D-------|
G-------|

STRUCTURE:
RIFF 1 4X (00:16)
RIFF 1 4X (00:44)
RIFF 2 2X (00:59)
RIFF 1 4X (01:42)
RIFF 2 2X (01:56)
RIFF 3 1X (02:24)
RIFF 1 2X (03:00)
RIFF 2 4X (03:07) 
made of storm btab
Rated: 3.70Reviews: 545

Related Files