Archive, m >> mr bungle

3.60

quote unquote btab

 Bass Tab
Quote Unquote - Mr Bungle
Drop D Tuning (D,A,D,G)

Intro
|------------------|x2
|------------------|
|------------------|
|-4---------1----0-|

|-------------------------|---------------------|
|-------------------------|---------------------|
|-------------------------|---------------------|
|-4--4--4--4--1--1--0--0--|-4--4--4--4--1-1-1-1-|

Verse (slapping)
|----------------------|------------|
|----------------------|------------|
|------------1-1-0-0---|------------|
|-0-0---0-0------------|-4-4---1--1-|

Swing part
Just play any notes in the D minor key.(If you don't know the
minor scale, you're a retard)

Lead back to heavy part
|------------------|
|------------------|
|---------6-----6--|
|-0--0-0-----0-----|

Heavy Part                           (only on last time)
|--------------------|---------------|-----------------|
|--------------------|---------------|-----------------|
|--------------------|---------------|-----------------|
|-2---2--2-2--3-2-0--|--8-7-0---4-5--|--4--5----2-4-5--|

Mellow spooky bit
|-----2-------2---|
|-----0-------0---|
|-----------------|
|-2--------2------|


Tabbed by BENDA
wacka_smacka@hotmail.com
 
quote unquote btab
Rated: 3.60Reviews: 441

Related Files