Archive, n >> nine inch nails

2.40

getting smaller ver3 tab

 Song: Getting Smaller
Artist: Nine Inch Nails
Album: With Teeth
Tuning: Semi-tone down EbAbDbGbBbeb


So, no one has got this song right so far, so here it is!  I didn’t tab the
ad lib at the beginning, I tend to just mess around on the guitar.
Technically it is in Eb but you can play it in standard, just don’t play
the open E string in the verse and play everything else one fret down.

~ let ring
. staccato
/ slide


Intro:

eb|------------------------------------------------|------------------------------------------------|
Bb|------------------------------------------------|------------------------------------------------|
Gb|-------------LOTS OF NOISE LOLS-----------------|------------------------------------------------|
Db|------------------------------------------------|------------------------------------------------|
Ab|------------------------------------------------|------------------------------------------------|
Eb|------------------------------------------------|------------------------------------------------|


Verse:

     Eb
eb|------------------------------------------------|------------------------------------------------|
Bb|------------------------------------------------|------------------------------------------------|
Gb|-----------9--9--7.----7/---12-12--9--~--x--x--x|-----------9--9--7.----7/---12-12--9--~--x--x--x|
Db|-----------x--x--x-----x-----x--x--x-----x--x--x|-----------x--x--x-----x-----x--x--x-----x--x--x|
Ab|-----------7--7--5.----5/---10-10--7--~--x--x--x|-----------7--7--5.----5/---10-10--7--~--x--x--x|
Eb|--0--~--0.--------------------------------------|--0--~--0.--------------------------------------|


Chorus:

     Eb
eb|------------------------------------------------|------------------------------------------------|
Bb|------------------------------------------------|------------------------------------------------|
Gb|------------------------------------------------|------------------------------------------------|
Db|--5--~--------------------------------------5.--|--5--~------------------------------------------|
Ab|--------7--6--5--6--5--4--5.----6.----7.--------|--------7--6--5--6--5--4--5.----6.----7.----7.--|
Eb|------------------------------------------------|------------------------------------------------|


Bridge:

           B5                Gb5   Ab5                      B5                Gb5   Ab5
eb|------------------------------------------------|------------------------------------------------|
Bb|------------------------------------------------|------------------------------------------------|
Gb|------------------------------------------------|------------------------------------------------|
Db|------------------------------------------------|------------------------------------------------|
Ab|-------10-10.---10-10.----5.----7--7.----7--7--7|-------10-10.---10-10.----5.----7--7.----7--7--7|
Eb|--------8--8.----8--8.----3.----5--5.----5--5--5|--------8--8.----8--8.----3.----5--5.----5--5--5|
 
getting smaller ver3 tab
Rated: 2.40Reviews: 417