Archive, o >> oomph

gott ist ein popstar btab

 Techno Beat through Verse

chorus x 2
F|-------------------------------------------------------------------------|
C|-------------------------------------------------------------------------|
G|-------------2-2---------------------------------------------------------|
C|-2-2-2-2-2-2-----4-4-4-4-4-4-2-2-6-6-6-6-6-6-6-6-9-9-9-9-9-9-9-1---------|

F|-------------------------------------------------------------------------|
C|-------------------------------------------------------------------------|
G|-------------2-2---------------------------------------------------------|
C|-2-2-2-2-2-2-----4-4-4-4-4-4-4-4-1-1-1-1-1-1-1-1-4-4-4-4-4-4-4-4---------|

Techno Beat through Verse

chorus x 2
F|-------------------------------------------------------------------------|
C|-------------------------------------------------------------------------|
G|-------------2-2---------------------------------------------------------|
C|-2-2-2-2-2-2-----4-4-4-4-4-4-2-2-6-6-6-6-6-6-6-6-9-9-9-9-9-9-9-1---------|

F|-------------------------------------------------------------------------|
C|-------------------------------------------------------------------------|
G|-------------2-2---------------------------------------------------------|
C|-2-2-2-2-2-2-----4-4-4-4-4-4-4-4-1-1-1-1-1-1-1-1-4-4-4-4-4-4-4-4---------|

Bridge:
F|-----------------------------------------------------------------------|
C|-----------------------------------------------------------------------|x4
G|-----------------------------------------------------------------------|
C|-2-2-2-2-2-2-2-2-2-2-2-2-2-2-2-2-66--66--66--66--6---------------------|

chorus x 2
F|-------------------------------------------------------------------------|
C|-------------------------------------------------------------------------|
G|-------------2-2---------------------------------------------------------|
C|-2-2-2-2-2-2-----4-4-4-4-4-4-2-2-6-6-6-6-6-6-6-6-9-9-9-9-9-9-9-1---------|

F|-------------------------------------------------------------------------|
C|-------------------------------------------------------------------------|
G|-------------2-2---------------------------------------------------------|
C|-2-2-2-2-2-2-----4-4-4-4-4-4-4-4-1-1-1-1-1-1-1-1-4-4-4-4-4-4-4-4---------|