Archive, p >> pez

the festival song solo tab

 	Tabbed by:
	Email:

	Tuning: Standard

	e|-8h10-8---6-----------------------------------------------------------6----|
	B|----8-6-------8---6---------------------------------------11---------------|
	G|----------7-----------------------------------------10-12----12------------|
	D|--------------10--8--12---10--8-----10--8-----------13---------------------|
	A|---------------------10---10--------10--10---------------------------------|
	E|--------------------------------11-------------11---------------------8----|

	e|-6---6---------6-------6---6---6--------6-10-------------------------------|
	B|-8---8-----6-8---8-----8---6---6------6------------------------------------|
	G|-----------8-------------------7-------------------------------------------|
	D|---------------------------------------------------------------------------|
	A|-----8-----------------6---6-----------------------------------------------|
	E|-8-----------------------------6-------------------------------------------|