Archive, p >> pino daniele

essies song intro tab

 Essies song by daantje (intro)


E|-------------------------------------------|
B|---0---0---0---0---0---0---0---0---0---0---|
G|--0-0-0-0-0-0-0-0-0-0-0-0-0-0-0-0-2-2-2-2--|
D|-0---0---1---1---2---2---3---3---0---0---0-|
A|-------------------------------------------|
E|-------------------------------------------|

E|-------------------------------------------|
B|---0---0---0---0---0---0---0---0---0---0---|
G|--0-0-0-0-0-0-0-0-0-0-0-0-0-0-0-0-2-2-2-2--|
D|-0---0---1---1---2---2---3---3---0---0---0-|
A|-------------------------------------------|
E|-------------------------------------------|