Archive, r >> regina spektor

us ver2 tab

 Regina Specktor - Us

It's my very first tab, and it's pretty much just my version of it.

Chords:
Verse C/F
Chorus C/F/Am/G

Intro & Verse
\\" They made a statue of us....\\" 
e---------------------------------------------------|
B---------------------------------------------------|
G-------0----------0-----------2-----------2--------|
D----2-----2----2-----2-----3-----3-----3-----3-----|
A--3---------3-----------3-----------3--------------|
E---------------------------------------------------| x 8


\\" They named a city after us...\\" 
e---------------------------------------------------|
B--------1----------------1-------------------------|
G------0---0------------0---0-----------------------|
D----2-------2---2----3-------3---3-----------------|
A--3-----------3----3-----------3-------------------|
E---------------------------------------------------| x 6



Chorus :

\\" And were living in a den of thieves...\\" 

e----------------------------------------------------------3----|
B------1-------1--------1-------1--------1-------1--------0-----|
G----0---0---0---0----2---2---2---2----2---2---2---2-----0------|
D--3-------3--------3-------3--------2-------2-------2--0-------|
A---------------------------------------------------------------|
E---------------------------------------------------------------|

e-----------------------------------------------------------3-|
B--------------------------1-------1--------1-------1------0--|
G------1-------1----0----2---2---3---3----2---2---2---2---0---|
D----0---0---0---0-----3-------3--------2-------2--------0----|
A--3-------3--------------------------------------------------|
E-------------------------------------------------------------|


Please let me know if there's some corrections.