Archive, r >> ryan taylor bliss

til then tab

 Listen For Strumming- these are just the chords

Intro: ------------------------------|
       ------------------------------|
       -----9------------------------| 4X  (after the second time,another guitar plays this)
       -----9-------         --------|
       -----7-------         -5-7-9--|
       -------------         --------|
                             --------|
                             --------|
                             --------|


--------------------------------------------------------------|
--------------------------------------------------------------|
---9---8---6---8---9------------------------------------------|
---9---9---7---9---9------------------------------------------|
---7---9---7---9---7------------------------------------------|
-------7---5---7----------------------------------------------|

(E-B-A-B-E) are the chords used

Great song and pretty easy to play...I didn't tab the whole thing out but that should work for ya.

Tabbed By: Tony Castillo