Archive, s >> say anything

every man has a molly solo tab

 e--------------------------------------------------------------------------------------|
B--------------------------------------------------------------------------------------|
G-6-4-4-6-4-4h6-7-6-4--------7-6-4---4-6p4h6p4-4~--6-4------------4h6--------9h11p9h11-|
D---------------------7-7/9-------7------------------7-6-7-6-4------7-6--4-------------|
A-------------------------------------------------------------7~-----------------------|
E--------------------------------------------------------------------------------------|

e-------------------------------------------------------------------------------------|
B--12-14-12-10------------------------------------------------------------------------|
G-------------------------------------------------------------------------------------|
D-------------------------------------------------------------------------------------|
A-------------------------------------------------------------------------------------|
E-------------------------------------------------------------------------------------|