Archive, s >> social distortion

sick boys btab

 SOCIAL DISTORTION - SICK BOYS
STANDARD TUNING

Intro

G----------------------------6---8-------
D------------4--6------------------------
A--------0h5-----------------------------
E----------------------------------------


Verse/Chorus Repeat

G----------------------------------------------------
D----------------------------------------------------
A-------------4444--6666------------4444-------------
E---44444444--------------44444444--------0000-------

Ending

G----------------------------------------------------
D----------------------------------------------------
A--------------4----6--------------------------------
E---44444444-------------------4---------------------


I believe that's it.  Im not totally sure its correct but feel free to add
corrections or comments.  This is my first tab so don't hate if its wrong.
Its a great song but it wasnt up there so I took it upon myself to try and
figure it out.
Good luck 

Related Files