Archive, s >> strokes

under cover of darkness ver3 btab

 Artist: The Strokes

Album: Angles

Song: Under Cover Of Darkness


Intro

G||--------------------|--------------------|
D||--------------------|--------------------|
A||--------------------|--------------------|
E||-7-7----------------|-7-7----------------|

G||--------------------|--------------------||
D||--------------------|--------------------||  x2
A||--------------------|--------------------||
E||-9-9----------------|-9-9----------------||


Verse

G||--------------------|--------------------|
D||--------------------|--------------------|
A||--------------------|--------------------|
E||-7---------7--------|---7----7-----------|

G||--------------------|--------------------|
D||-9---------7--------|-----------7--------|
A||------6--9----9-6---|------6--9----9-6---|
E||----7-------------7-|----7-------------7-|


G||--------------------|--------------------|
D||--------------------|--------------------|
A||-6---------6--------|---6----6-----------|
E||--------------------|--------------------|

G||-8---------6--------|-----------6--------|
D||---------8----8-----|---------8----8-----|
A||----6-9---------9-6-|----6-9---------9-6-|
E||--------------------|--------------------|


G||--------------------|--------------------|
D||--------------------|--------------------|
A||--------------------|--------------------|
E||-4---------4--------|---4----4-----------|

G||--------------------|--------------------|
D||-6---------4--------|-----------4--------|
A||---------6----6-----|---------6----6-----|
E||----4-7---------7-4-|----4-7---------7-4-|


G||--------------------|--------------------|
D||--------------------|--------------------|
A||-7---------7--------|---7----7-----------|
E||--------------------|--------------------|

G||--------------------|--------------------|
D||--------------------|--------------------|
A||-7---------7--------|---7----7-----------|
E||--------------------|--------------------|

---

G||--------------------|--------------------|
D||--------------------|--------------------|
A||--------------------|--------------------|
E||-7---------7--------|---7----7-----------|

G||--------------------|--------------------|
D||-9---------7--------|-----------7--------|
A||------6--9----9-6---|------6--9----9-6---|
E||----7-------------7-|----7-------------7-|

G||--------------------|--------------------|
D||--------------------|--------------------|
A||-6---------6--------|---6----6-----------|
E||--------------------|--------------------|

G||-8---------6--------|-----------6--------|
D||---------8----8-----|---------8----8-----|
A||----6-9---------9-6-|----6-9---------9-6-|


Pre-Chorus

G||--------------------|--------------------|
D||--------------------|--------------------|
A||-7----7----7----7---|-4----4----4----4---|
E||--------------------|--------------------|

G||--------------------|--------------------|
D||--------------------|--------------------|
A||--------------------|-4----4----4----4---|
E||-4----4----4----4---|--------------------|

G||--------------------|--------------------||
D||--------------------|--------------------||
A||--------------------|--------------------||
E||-7-7--7--7--7---7---|-7-7--7--7--7--77---||
    .    .    .    .     .    .    .    .

Chorus

G||--------------------|--------------------|
D||--------------------|--------------------|
A||--------------------|--------------------|
E||-4------4------44---|-4------4------44---|

G||--------------------|--------------------|
D||--------------------|--------------------|
A||-7------7------77---|-7------7------77---|
E||--------------------|--------------------|

G||--------------------|--------------------|
D||--------------------|--------------------|
A||--------------------|--------------------|
E||-7------7------77---|-7------7------77---|

G||--------------------|--------------------||
D||--------------------|--------------------||  x2
A||--------------------|--------------------||
E||-2------2------22---|-2------2------23---||

---

G||--------------------|--------------------|
D||--------------------|--------------------|
A||--------------------|--------4------46---|
E||-4-----44------44---|-4-----4------------|

G||--------------------|--------------------|
D||--------------------|--------------------|
A||-7-----77------77---|-7-----76------6----|
E||--------------------|----------------9---|

G||--------------------|--------------------|
D||--------------------|--------------------|
A||--------------------|--------------------|
E||-7-----77------77---|-7-----77------76---|

G||--------------------|--------------------|
D||--------------------|--------------------| 
A||--------------------|--------------------|
E||-2-----22------22---|-2-----22------23---|

---

G||--------------------|--------------------|
D||--------------------|--------------------|
A||--------------------|--------4------46---|
E||-4-----44------44---|-4-----4------------|

G||--------------------|--------------------|
D||--------------------|--------------------|
A||-7-----77------77---|-7-----76------6----|
E||--------------------|----------------9---|

G||--------------------|--------------------|
D||--------------------|--------------------|
A||--------------------|--------------------|
E||-7-----77------77---|-7-----77------76---|

G||--------------------|--------------------|
D||--------------------|--------------------| 
A||--------------------|--------------------|
E||-2-----22------22---|-2------2-----------|


Interlude

G||--------------------|--------------------|
D||--------------------|--------------------|
A||--------------------|--------------------|
E||-7-7----------------|-7-7----------------|

G||--------------------|--------------------|
D||--------------------|--------------------|
A||--------------------|--------------------|
E||-9-9----------------|-9-9----------------|


Verse 2

G||--------------------|--------------------|
D||--------------------|--------------------|
A||--------------------|--------------------|
E||-7---------7--------|---7----7-----------|

G||--------------------|--------------------|
D||-9---------7--------|-----------7--------|
A||------6--9----9-6---|------6--9----9-6---|
E||----7-------------7-|----7-------------7-|

G||--------------------|--------------------|
D||--------------------|--------------------|
A||-6---------6--------|---6----6-----------|
E||--------------------|--------------------|

G||-8---------6--------|-----------6--------|
D||---------8----8-----|---------8----8-----|
A||----6-9---------9-6-|----6-9---------9-6-|


Pre-Chorus 2

G||--------------------|--------------------|
D||--------------------|--------------------|
A||-7----7----7----7---|--------------------|
E||--------------------|-4----4----4----4---|

G||--------------------|--------------------|
D||--------------------|--------------------|
A||--------------------|-7----7----7----7---|
E||-7----7----7----7---|--------------------|

G||--------------------|--------------------||
D||--------------------|--------------------||
A||--------------------|--------------------||
E||-7-7--7--7--7---7---|-7-7--7--7--7--77---||
    .    .    .    .     .    .    .    .

Chorus 2

G||--------------------|--------------------|
D||--------------------|--------------------|
A||--------------------|--------------------|
E||-4------4------44---|-4------4------44---|

G||--------------------|--------------------|
D||--------------------|--------------------|
A||-7------7------77---|-7------7------77---|
E||--------------------|--------------------|

G||--------------------|--------------------|
D||--------------------|--------------------|
A||--------------------|--------------------|
E||-7------7------77---|-7------7------77---|

G||--------------------|--------------------||
D||--------------------|--------------------||  x2
A||--------------------|--------------------||
E||-2------2------22---|-2------2------23---||

---

G||--------------------|--------------------|
D||--------------------|--------------------|
A||--------------------|--------4------46---|
E||-4-----44------44---|-4-----4------------|

G||--------------------|--------------------|
D||--------------------|--------------------|
A||-7-----77------77---|-7-----76------6----|
E||--------------------|----------------9---|

G||--------------------|--------------------|
D||--------------------|--------------------|
A||--------------------|--------------------|
E||-7-----77------77---|-7-----77------76---|

G||--------------------|--------------------|
D||--------------------|--------------------| 
A||--------------------|--------------------|
E||-2-----22------22---|-2-----22------23---|

---

G||--------------------|--------------------|
D||--------------------|--------------------|
A||--------------------|--------4------46---|
E||-4-----44------44---|-4-----4------------|

G||--------------------|--------------------|
D||--------------------|--------------------|
A||-7-----77------77---|-7-----76------6----|
E||--------------------|----------------9---|

G||--------------------|--------------------|
D||--------------------|--------------------|
A||--------------------|--------------------|
E||-7-----77------77---|-7-----77------76---|

G||--------------------|--------------------|
D||--------------------|--------------------| 
A||--------------------|--------------------|
E||-2-----22------22---|-2------2-----------|


Solo

G||--------------------|--------------------|
D||--------------------|--------------------|
A||-4------4---4-------|-4------4---4-------|
E||--------------------|--------------------|

G||--------------------|--------------------|
D||--------------------|--------------------|
A||-6------6---6-------|-6------6---6-------|
E||--------------------|--------------------|

G||--------------------|--------------------|
D||--------------------|--------------------|
A||-4------4---4-------|-4------4---4-------|
E||--------------------|--------------------|

G||--------------------|--------------------|
D||--------------------|--------------------| 
A||--------------------|--------------------|
E||-7------7---7-------|-7------7---7-------|

---

G||--------------------|--------------------|
D||--------------------|--------------------|
A||--------------------|----------------9---|
E||-7----7----7----7---|-7----7----7--------|

G||--------------------|--------------------|
D||--------------------|--------------------|
A||-10---10---10---10--|-10---10---10---9---|
E||--------------------|--------------------|

G||--------------------|--------------------|
D||--------------------|--------------------|
A||--------------------|--------------------|
E||-7----7----7----7---|-7----7----7----7---|

G||--------------------|--------------------|
D||--------------------|--------------------|
A||--------------------|----------------2---|
E||-4----4----4----4---|-4----4----4--------|

---

G||--------------------|--------------------|
D||--------------------|--------------------|
A||-4-----44------44---|-4-----44------44---|
E||--------------------|--------------------|

G||--------------------|--------------------|
D||--------------------|--------------------|
A||-6-----66------66---|-6-----66------66---|
E||--------------------|--------------------|

G||--------------------|--------------------|
D||--------------------|--------------------|
A||-4-----44------44---|-4-----44------44---|
E||--------------------|--------------------|

G||--------------------|--------------------|
D||--------------------|--------------------| 
A||--------------------|--------------------|
E||-7-----77------77---|-6-----66------66---|


Chorus 3


G||--------------------|--------------------|
D||--------------------|--------------------|
A||--------------------|--------4------46---|
E||-4-----44------44---|-4-----4------------|

G||--------------------|--------------------|
D||--------------------|--------------------|
A||-7-----77------77---|-7-----76------6----|
E||--------------------|----------------9---|

G||--------------------|--------------------|
D||--------------------|--------------------|
A||--------------------|--------------------|
E||-7-----77------77---|-7-----77------76---|

G||--------------------|--------------------||
D||--------------------|--------------------||  x2
A||--------------------|--------------------||
E||-2-----22------22---|-2-----22------23---||

---

G||--------------------|--------------------|
D||--------------------|--------------------|
A||--------------------|--------------------|
E||-4-----44------44---|-4-----44------44---|

G||--------------------|--------------------|
D||--------------------|--------------------|
A||-7-----77------77---|-7-----77------77---|
E||--------------------|--------------------|

G||--------------------|--------------------|
D||--------------------|--------------------|
A||--------------------|--------------------|
E||-7-----77------77---|-7-----77------77---|

G||--------------------|--------------------||
D||--------------------|--------------------||  x2
A||--------------------|--------------------||
E||-2-----22------22---|-2-----22-----------||

---

G||--------------------|
D||--------------------|
A||--------------------|
E||-7-7----------------|


tab by: Pedro Zappa 

Related Files