Archive, t >> tegan and sara

on directing ver4 tab

 Verse:
e|-----------------------------------------|
B|-----------------------------------------|
G|-----------------------------------------|
D|---10---------12-------------------------|
A|---8-(16x)----10-(16x)-------------------|
D|---8----------10-------------------------|


Chorus:
e|--------------------------------------------|
B|--------------------------------------------|
G|--------------------------------------------|
D|---8-8-8-8-8-8-8-8-8---5-5-5-5---3-3-3-3----|
A|---8-8-8-8-8-8-8-8-8---5-5-5-5---3-3-3-3----|
D|---8-8-8-8-8-8-8-8-8---5-5-5-5---3-3-3-3----|