Archive, t >> terveet kadet

vapaa pohjola tab

 Riff 1
E---------------------------------------------------|
B---------------------------------------------------|
G---------------------------------------------------|
D--7--7--7--7--5--5--5--5--9--10-10-10-9--10-10-10--|
A--7--7--7--7--5--5--5--5--9--10-10-10-9--10-10-10--|
E--5--5--5--5--3--3--3--3--7--8--8--8--7--8--8--8---|

Riff 2
E--------------------------|
B--------------------------|
G--9--9--9--9--------------|
D--9--9--9--9--9--9--9--9--|
A--7--7--7--7--9--9--9--9--|
E--------------7--7--7--7--|

Riff 1 x5
Riff 2 x4
Riff 1 x5
Riff 2 x4

End with
D--7--
A--7--
E--5-- 

Related Files