Archive, t >> the fray

say when intro tab

 -----------------------------------------------------------------
SONG NAME - Say When by The Fray
-----------------------------------------------------------------
Tabbed by: frayTabber

Tuning: Standard

e|---------------------------------------------------------------|
B|---------------------------------------------------------------|
G|------2---------------------2---------------------2------------|
D|--4----0---------2------4----0---------2------4----0---------2-|
A|-------------4----0----------------4----0----------------4----0|
E|---------------------------------------------------------------|

e|---------------------------------------------------------------|
B|---------------------------------------------------------------|
G|---------------------------------------------------------------|
D|---------------------------------------------------------------|
A|-0-0-0-2-2-----------------------------------------------------|
E|---------------------------------------------------------------| 

Related Files