Archive, t >> the jezabels

disco biscuit love tab

 http://www.thejezabels.com/

So there are no tabs for The Jezabels on UG, and that's just silly, because they're
This tab isn't the correct guitar part, Sam doesn't use these power chords, BUT, I think
what the piano plays. Anyway, they work, sound correct, all the important stuff. The 
riff sounds pretty much correct, a few minor notes missing that you can put in if you
and, again, Sam plays it on a different part of the fretboard than what I've got here.

e----------------------------------------------------|
B----------------------------------------------------|
G----10----10------8----8-----7----7------5----5---5-|
D--8-----8----8-------------5----5---5-33---33---3---|
A---------------66----6---6--------------------------|
E----------------------------------------------------|


e------------------------|
B------------------------|
G-------8----------------|
D--8----8----12------10--|
A--8----6----12------10--|
E--6---------10------8---|
Call it art, call it cult
Trudy was a friend of old
Call her eyes, such a fright,
She's sailing on a wave of light.
Oh, Trudy. Trudy.

She just called to tell me
'We've got names on every door'
She's in the self-destruct mode
For one big night to end it all


e------------------------|
B------------------------|
G-------10----12----8----|
D--8----10----12----8----|
A--8----8-----10----6----|
E--6---------------------|
Oh Trudy, you're with the meanest boy in the hills
I know he's groovy, but he only loves you when he's on pills
And you can call it what you want to call it,
But you know it's disco biscuit love.


e------------------------|
B------------------------|
G-------8----------------|
D--8----8----12------10--|
A--8----6----12------10--|
E--6---------10------8---|
Trudy walks a different road
Truly she would try it all
Leave your head in the cloakroom
Leave your heart at the door
Oh, Trudy

You touched the untouchable
Because this earth is no fun at all
And now when Cindy plays at the disco
I don't see you on the floor


e------------------------|
B------------------------|
G-------10----12----8----|
D--8----10----12----8----|
A--8----8-----10----6----|
E--6---------------------|
Oh Trudy, you're with the meanest boy in the hills
I know he's groovy, but he only loves you when he's on pills
And it's that heart of yours, it's not your body that makes you ill
You're so sick with his disco biscuit love


e----------------------------------------------|
B----------------------------------------------|
G-------10----12----8---------10----12----8----|
D--8----10----12----8----8----10----12----8----|
A--8----8-----10----6----8----8-----10----6----|
E--6---------------------6---------------------|
   ^^^^ ^^^^  ^^^^  ^^^^ ^^^^ ^^^^  ^^^^  ^^^^
  (^x^x^x^x ^x^x^x^x ^x^x^x^x ^x^x^x^x)