Archive, t >> the living end

whats on your radio btab

 This is a great song and it's fun to play. It's 99.9% correct.

/-slide
<-let ring

Starts with guitar x2

(starts half way through 3rd time)

G|------------------9--9-9-8-7-6-5|
D|--------------------------------|
A|--------------------------------|
E|--------------------------------|

  Verse         x4                               x4
G|-----------------|--------------------------------|
D|-2-----2-------0-|-2-----2-------2-----2----------|
A|-----------3-2---|-----------------------2--------|
E|---0-0---0-------|---0-0---0-0-0---0-0-----3-0----|

  Bridge  x3
G|----------|-----------|
D|----------|-----------|
A|-2-2-2----|-2-2-2/6-6-|
E|------3-2-|-----------|

 Chorus       x3        1st ending                              2nd ending
G|---------------|----------------|Play  |-----2--2-----------------------|
D|-2-----2-------|-2-0-0000-----0-|Chorus|-2-0--0----5--5-----------------|
A|---------------|----------3-2---|Again |---------3--3-----0-0-0--0-0-0--|
E|---0-0---0-0-0-|----------------|      |-------------------------------0|


Verse
Bridge
Chorus

Pre-solo
G|---|
D|---|
A|---|
E|-0-|

Over the Solo                                                   x2 
G|-----------------------------------------------------------------|
D|-----2-------2-------2---2-0-1-2--2-----2-----0-2-----2----------|
A|-0-3---3-0-3---3-0-3---3------------------3-2-----------2--------|
E|------------------------------------0-0-----------0-0-----3-0----|

outro
G|-----------------------------------------------------------------|
D|-----------------------------------------------------------------|
A|-2-2-2-2-2-2-2-0-2-2-2-2-2-2-2-0-2-2-2-0-2-2-2-0-2-3-4-5---------|
E|-----------------------------------------------------------------|

Verse (only the first part)


G|--------------------------------------|
D|-2<--------2-0------------2-0-2-0-2-0-|
A|--------------------------------------|
E|----0<--0<-----0<--0<--0<-------------|

Chorus (1st ending twice)-(2nd ending once)

ending
G|--------------|
D|--------------|
A|-0-0-0-0-0-0--|
E|-------------0|