Archive, t >> theory of a deadman

bad girlfriend tab

 This is my first tab but i'm 95% sure this is right.
Drop D

Intro (One guitar or 
|------------------------------------------|
|------------------------------------------|
|------------------------------------------|
|--0-0-------------------------------------|
|--0-0-----5--3--0-----3--5----------------|
|--0-0--------------5----------------------|

|------------------------------------------|
|------------------------------------------|
|------------------------------------------|
|--0-0-----------------3v------------------|
|--0-0-----5--3--0-------------------------|
|--0-0--------------5----------------------|  
Repeat all (Listen to figure it out)



Chorus

Rhythm 
|------------------------------------------|
|------------------------------------------|
|----------5-5-5---------5-5-5-------------|
|--0-0-0---5-5-5--5-5-5--5-5-5-------------|
|--0-0-0---3-3-3--5-5-5--3-3-3-------------|
|--0-0-0----------5-5-5--------------------|
(listen to find the strum pattern)

Lead
|-------------------------------------------|
|-------------------------------------------|
|-------------------------------------------|
|--14b--12--9--12--14b--12--9--12--14h--14b-|
|-------------------------------------------|
|-------------------------------------------|

|-------------------------------------------|
|-------------------------------------------|
|-------------------------------------------|
|--14b--12----------------------------------|
|-----------12-11-12-11-12-11---------------|
|-----------------------------12------------|

|-------------------------------------------|
|-------------------------------------------|
|-------------------------------------------|
|--14b--12--9--12--14b--12--9--12--14h--14b-|
|-------------------------------------------|
|-------------------------------------------|

|-------------------------------------------|
|-------------------------------------------|
|----------14-13-14-13-14-13-14-------------|
|--14b--12----------------------------------|
|-------------------------------------------|
|-------------------------------------------|

(Sorry no solo yet)

Outro

|-------------------------------|
|-------------------------------|
|-------------------------------|
|-0-0---------------------------|
|-0-0--5--3--0-----3--5---------|
|-0-0-----------5---------------|

|-------------------------------|
|-------------------------------|
|-------------------------------|
|-0-0--------------0-0----------|
|-0-0--5--3--0-----0-0----------|
|-0-0-----------5--0-0----------|

Leave me some comments and let me know how I did.