Archive, t >> traveling wilburys

where were you last night tab

 ---------------------------------------------------------------------------
Where were you last night – Traveling Wilburys
---------------------------------------------------------------------------
Tabbed by: maguri
Tuning: Standard

Another good one from the Wilbury's \\" Vol. 3\\" . It's fun to play these songs with more than
one acoustic guitar, using capos in different positions. That's what the Wilbury sound is about
anyway.

I think I got pretty close. I'm not sure about the C chord in the \\" You weren't around me when
they found me\\"  part and the corresponding sections, though. Any ideas anybody? Thanks for
comments!


---------------------------------------------------------------------------
GUITAR PARTS

Intro Riff (many guitars in different positions; for example:)

git 1                              git 2
e|--------------|-------------|   e|--------------|-------------|
B|-3--1---0-----|-------------|   B|--------------|-------------|
G|------------3-|-2--1--0-----|   G|--------------|-------------|
D|--------------|----------b3-|   D|--------------|-------------|
A|--------------|-------------|   A|-5--3--2---1--|-0-----------|
E|--------------|-------------|   E|--------------|----4--3--b1-|


Solo
e|------------------|---10-12----10-12|-----------------|-----------------|
B|----10------------|12-------11------|10---------------|-----------------|
G|/11---------------|-----------------|---11------------|-----------------|
D|------------------|-----------------|-----------------|-----------------|
A|------------------|-----------------|-----------------|-----------------|
E|------------------|-----------------|-----------------|-----------------|
                    [triplet] [triplet]

e|------------------|---10-12----12-10|-----------------|-----------------|
B|----10------------|12-------11------|10---------------|-----------------|
G|/11---------------|-----------------|---11------------|-----------------|
D|------------------|-----------------|-----------------|-----------------|
A|------------------|-----------------|-----------------|-----------------|
E|------------------|-----------------|-----------------|-----------------|
                    [triplet] [triplet]


---------------------------------------------------------------------------
SONG


D
Intro riff

D           G   Gm  D      A  D
Where were you last night?
D        G  Gm D    A  D
You were so uptight.
G            Cm  G   Gm  A   D
What did you do, who did you see?
G             Cm  G         Gm     A
Were you with someone who reminded you of me?
D          G    Gm   D     A  D
Where were you last night?   (Intro riff)

D          G   Gm   D      A  D
Where were you last week?
D        G Gm D      A  D
Were you up a creek?
G       Cm   G  Gm A       D
Did you stay up pacing the floor?
G      Cm  G         Gm      A
Got me worried you ignore me more and more.
D          G   Gm   D
Where were you last night?
            A         D         C
You weren't around me when they found me.
D          A        D
Where were you last night? (Intro riff)

| D | G Gm | D A | D |
(solo)
| D | G Gm | D A | D |
(solo)

G                    A
You better stop your messin' around
     Bm                       E
Your name is going round from town to town
     D         A
It's making me sad
D              C
Making me feel bad
D          A
Where were you last night? (Intro riff)

D          G   Gm   D      A  D
Where were you last year?
D           G     Gm     D      A  D
You sure as hell weren't here.
G           Cm  G   Gm     A  D
You weren't waiting where you said.
G        Cm  G      Gm   A
You sent someone in your place instead.
D          G   Gm   D
Where were you last night?
             A      D         C
It's getting to me, making me gloomy
D          A         D
Where were you last night? (Intro riff)


---------------------------------------------------------------------------
ADDITIONAL GUITAR

There are always lots of acoustic guitars on Wilbury songs with capos in different 
You might want to track the first guitar with a second one, capo 5th fret:

Intro riff
e|--------------|-------------|
B|--------------|-------------|
G|-2--0---------|-------------|
D|--------4---3-|-2--1--0-----|
A|--------------|-----------3-|
E|--------------|-------------|


Intro
| A | A |
(intro riff)

Verse 1
| A | D Dm | A E | A | A | D Dm | A E | A |
| D | Gm D | Dm E | A | D | Gm D | D Dm | E |
| A | D Dm | A E | A | A |
                 (intro riff)

Verse 2
| A | D Dm | A E | A | A | D Dm | A E | A |
| D | Gm D | Dm E | A | D | Gm D | D Dm | E | E |
| A | D Dm | A E | A G | A E | A | A |
                             (intro riff)

Solo
| A | D Dm | A E | A | A | D Dm | A E | A |

Middle 8
| D | E | F#m | H | A E | A G | A E | A | A |
                                      (intro riff)

Verse 3
| A | D Dm | A E | A | A | D Dm | A E | A |
| D | Gm D | Dm E | A | D | Gm D | D Dm | E | E |
| A | D Dm | A E | A G | A E | A | A | A
                             (intro riff)