Archive, v >> van halen

beautiful girls intro tab

 I know this song isnt very popular but it deserves to be tabbed for the people who like
it. Its not as fast as Hot for Teacher but its still pretty fast so have fun!


Eb|-------------------------------------||
Bb|-------------------------------------||
Gb|---------2-----2---------------------||
Db|0-2-3-4--2-----2------------7---8-9--||  x3
Ab|---------------------0h2--0-5-0-6-7--||
Eb|------------2-----3------------------||


Eb|-------------------------------------||
Bb|-------------------------------------||
Gb|---------2-----2---------------------||
Db|0-2-3-4--2-----2------------7---6-4--||  
Ab|---------------------0h2--0-5-0-4-2--||
Eb|------------2-----3------------------||



I'll get the rest some other time