Archive, v >> velvet underground

venus in furs ver2 btab

 -------------------------------------------------------------------------------
			     VENUS IN FURS - the Velvet Underground
-------------------------------------------------------------------------------
Tabbed by:  Auslaender80		
Email:  auchlander@hotmail.com

Tuning: dropped D flat (half step down & dropped D)

INTRO:

G|---------------------------------------------------------------------------|
D|---------------------------------------------------------------------------|
A|---------------------------------------------------------------------------|
D|--0--0-7--7-0--0-10-7-5-3--------------------------------------------------|


VERSE:

G|---------------------------------------------------------------------------|
D|---------------------------------------------------------------------------|
A|---------------------------------------------------------------------------|
D|--0--0-7--7-0--0-7--7-3-0--0-7--7-3-3-0-7-7-7-0-0--------------------------|

G|---------------------------------------------------------------------------|
D|---------------------------------------------------------------------------|
A|---------------------------------------------------------------------------|
D|--0--0-7--7-0--0-7--7-3-0--0-7--0-0-0--------------------------------------|


INTERLUDE:  (same as intro)


CHORUS: X3                      then

G|----------------------------|----------------------------------------------|
D|----------------------------|----------------------------------------------|
A|---------1--1-1-3--3-3------|----------------------------------------------|
D|--3--3-3---------------3-3--|--0--0-7--0-0-0-------------------------------|


I've never been able to find a decent tab for this song so I made one. Enjoy!


| /  slide up
| \  slide down
| h  hammer-on
| p  pull-off
| ~  vibrato
| +  harmonic
| x  Mute note
===============================================================================
 

Related Files