American Head Charge - Song For The Suspect Btab

 Artist:American Head Charge
Song:Song For Suspect
Tabbed by:Methirus@hotmail.com

Intro

G-------------------------
D-------------------------
A-------------------------
E--0-0-0-0-0-0-0-3h3h3h3h-

Fill

G----------------------------------------------------------------
D----------------------------------------------------------------
A----------------------------------------------------------------
E-12-10-9-8-7-6-5-4-3-2-1-0--------------------------------------

Fill 2

G----------------------------------------------------------------
D----------------------------------------------------------------
A----------------------------------------------------------------
E-3-3-3-3-3-3-3-3-3-3-3-8-8-8-8-7-7-7-7-7------------------------

Verse

G----------------------------------------------------------------
D----------------------------------------------------------------
A----------------------------------------------------------------
E-0-0-0--0-0-0--0-0-0--0-0-0--0-0-0--0-0-0--0-0-0--0-0-0--0-0-0--

Chorus 1

G----------------------------------------------------------------
D----------------------------------------------------------------
A----------------------------------------------------------------
E-3-3-3-3-3-3-9-9-9-8-8-7-7-7-7-7-10-11--------------------------

Play intro once or twice,then play verse again.

Chorus 2(MAY NOT BE CORRECT)

G----------------------------------------------------------------
D----------------------------------------------------------------
A----------------------------------------------------------------
E-3-3-3-3-3-3-9-9-9-8-8-7-7-7-7-10-11-12-9-9-9-8-8-7-7-7-10-11---

OUTRO

G----------------------------------------------------------------
D----------------------------------------------------------------
A---------------------5-5-7-7-7-9-9-3-3-3-3----------------------
E-7-7-7-8-8-8-7-5-4-4--------------------------------------------

Appreciate corrections on choruses. The rest should be correct. 
Careful on the timing of the outro. 
song for the suspect btab
Rated: 3.20Reviews: 414