Anterrabae - How Joey Got His Groove Back Btab

 Anterrabae
www.myspace.com/anterrabae
Shakedown Tonite
How Joey Got His Groove Back

Tab By: Anthony (bass player)

**This song has ALOT of parts. Be patient, please.**

Tuning: C G C F

Intro: (starts with two measures of rest)

F |---------------------------|
C |---------------------------|x4
G |-888-777-333-----555555555-|
C |-------------555-000000000-|

   (two more measures of rest)
F |------------------|
C |------------------|
G |------------------|
C |-00000000-0-0-0-0-|

Verse: (pattern: A, C, A, C, A, B, D, D, A, B, D, D)
                
                  A               B
F |----------------------------|----|
C |----------------------------|----|
G |----------------------------|----|
C |-00----0----00----00----0---|-00-|

                       C
F |-----------------------------------------|
C |-----------------------------------------|
G |-5-3-111111111111-0000-111111111-3333333-|
C |-----------------------------------------|

                    D
F |---------6-5-------------3-2-----|
C |-------------6-5---5-3-2-----3-2-|
G |-0-6-5-0---------3---------------|
C |---------------------------------|

Then:

F |---------------------|
C |---------------------|
G |---------------------|
C |-3-1-0-3-1-0-3-1-0-3-|

Verse 2:
   (four measures of rest)
F |----------------------------|
C |----------------------------|x2
G |----------------------------|
C |-0-3-1-0-00---3-00-1-00-3-0-|

   **(follow the hi-hat, kinda)**
F |----------------------------------------|
C |----------------------------------------|
G |----------------------------------------|
C |-0000-0-0-0-0000---0000-0-0-0-0000-0000-|

F |----------------------------------------|
C |----------------------------------------|
G |----------------------------------------|
C |-0000-0-0-0-0000---0000-0-0-0-3-1-0-3---|

Breakdown 1:

F |------------------------------------------------|
C |------------------------------------------------|x2
G |------------------------------------------------|
C |-0000--0-1--0000--3-1-00-0000--0-1--000--3-1-00-|

F |---------------------------------------|
C |---------------------------------------|x2
G |---------------------------------------|
C |-000-0-1-000-3-1-00-000-0-1-000-3-1-00-|

Fast Part 1:

F |----------------|
C |----------------|
G |----3>----------|
C |-0>----0>-1>-3>-|

Intro to last Breakdown:

F |---|
C |---|x4 (whole notes)
G |-5-|
C |-0-|

Last Breakdown: (pattern: A x3, B, Ax3, C)

           A              B           C
F |-----------------|-----------|-----------|
C |-----------------|-----------|-----------|
G |-----------------|-1111------|-1111-3333-|
C |-0-0-1-0-3-0-1-0-|------1111-|-----------|

Ending:

F |----------------7----------|
C |----------------7----------|
G |----------------5----------|
C |-0------0-------0>-------0-|

F |---------------------------------------------------------------------|
C |---------------------------------------------------------------------|x2
G |-5555555555555555-3333333333333333-1111111111111111-3333333333333333-|
C |---------------------------------------------------------------------|

F |---------------------------------------------------------------------|
C |-7---7-7-7--7-7-7-5---5-5-5--5-5-5-3---3-3-3--3-3-3-5---5-5-5--5-5-5-|x2
G |-5---5-5-5--5-5-5-3---3-3-3--3-3-3-1---1-1-1--1-1-1-3---3-3-3--3-3-3-|
C |---------------------------------------------------------------------|

F |--------|
C |--------|
G |-5>---5-|
C |-0>---0-|

And it's done. 
how joey got his groove back btab
Rated: 3.40Reviews: 425