Anterrabae - The Hands Of Christ Are Beautiful Hands Btab

 Anterrabae
And Our Heart Beat In Our Fingertips, Without Reason
The Hands of Christ are Beautiful Hands

Tuning: C G C F

Intro/Verse 1: whole thing twice

F |------------------------------|
C |------------------------------|x4
G |------3--------3-5------------|
C |-3-00---00-3-0-----00-000-000-|

F |-----------------------------------|
C |-----------------------------------|x1
G |-666666666666666666666666-88888888-|
C |-----------------------------------|

Bridge 1:

F |---------------------------------------------------------------------|
C |---------------------------------------------------------------------|x1
G |---------------------------------------------------------------------|
C |-0000000000000000-8888888888888888-3333333333333333-1111111111111111-|

Pre Chorus:

F |----------------|
C |----------------|
G |----------------|
C |-5\0------------|

Chorus: Pattern: A B B

         A                                          B
F |------------|---77777777777------------------------77777777777777-------------------|
C |-8>-10>-8-7-|---------------8-7---7777777777-8-7------------------7-777777----------|
G |-8>-10>-8-7-|---------------8-7--------------8-7------------------------------------|
C |-8>-10>-8-7-|-0-------------8-7-0------------8-7-0-------------------------8-888887-|

Verse 2: Same as Verse 1, with an extra 8 bars of rest before, and broken down.

Bridge 2:

F |---------------------------------------------------------------------|
C |---------------------------------------------------------------------|x2
G |---------------------------------------------------------------------|
C |-0000000000000000-8888888888888888-3333333333333333-1111111111111111-|

  ***NOW ADD LOTS OF OVERDRIVE*** (pattern follows kick and snare)
F |-------------------------------------------------------------------------|
C |-0-0-0--0-0-0-0-00-8-8-8--8-8-8-8-88-3-3-3--3-3-3-3-33-1-1-1--1-1-1-1-11-|x2
G |-0-0-0--0-0-0-0-00-8-8-8--8-8-8-8-88-3-3-3--3-3-3-3-33-1-1-1--1-1-1-1-11-|
C |-0-0-0--0-0-0-0-00-8-8-8--8-8-8-8-88-3-3-3--3-3-3-3-33-1-1-1--1-1-1-1-11-|

F |--------------------------------------------------------------------|
C |-0000000000000000-888888888888888-3333333333333333-1111111111111111-|x2
G |-0000000000000000-888888888888888-3333333333333333-1111111111111111-|
C |-0000000000000000-888888888888888-3333333333333333-1111111111111111-|

  ***OVERDRIVE OFF***
F |---------------------------------------------------------------------|
C |---------------------------------------------------------------------|x2
G |---------------------------------------------------------------------|
C |-0000000000000000-8888888888888888-3333333333333333-1111111111111111-|

Chorus 2: Same as Chorus 1

Outro: ***OVERDRIVE, BUT PLAYED STEADILLY HEAVIER AS THE PART GOES***

F |-----------------------------------------|
C |-----------------------------------------|x4
G |-----------------------------------------|
C |-0000000000000000-88888888-7777-10101010-|

Breakdown:

F |-77------77------77---------------------|
C |-77------77------77---------------------|x1
G |-55------55------55---------7h8----8h10-|
C |-00------00------00------7h8---8h10-----|

F |-77-----------77-----------77--------------------------|
C |-77-----------77-----------77--------------------------|x4
G |-55-----------55-----------55--------------7h8----8h10-|
C |-00-0-0-00-00-00-0-0-00-00-00-0-0-00-00-7h8---8h10-----|

F |-7-7-|
C |-7-7-|x1
G |-5-5-|
C |-0-0-|
Yeah, that's what's up. 
the hands of christ are beautiful hands btab
Rated: 3.60Reviews: 554