Anterrabae - Viper Btab

 Anterrabae
And Our Heart Beat In Our Fingertips, Without Reason
Viper

Tuning: Drop C (C G C F)

Intro:

F |-----------|
C |-7-------7-|
G |-5-------5-|
C |-0-------0-|

Verse:

F |----------------------------|-----------------------------------------|
C |----------------------------|-----------------------------------------|
G |----------------------------|-----------------------------------------|
C |-000---0--0-0-888--55555555-|-00000--0-0-00-00000-88888--8-8-55555555-|

Pre-Chorus:

F |-------------------------|  |--------|
C |-------------------------|x2|--------|
G |------7h8-----7h8------5-|  |--------|
C |-07h80---07h80---07h80-5-|  |-0/12\0-|

Chorus 1:

F |---------------------------|
C |---------------------------|x4
G |-5---3/5-------------------|
C |-0---------3-3-3-1-1-1-3-1-|

Intro to Verse 2:

F |-------------------|
C |-7------8---3---10-|x2
G |-5------8---3---10-|
C |-0------8---3---10-|

Verse 2: Same as Verse 1

Pre-Chorus: Same as above.

Chorus 1: Same as above

Chorus 2:

F |---------------------------------|
C |-------5/7-7-7-7-----------------|x4
G |-5-5-5-3/5-5-5-5-3-3-3-1-1-1-1-1-|
C |-0-0-0-----------3-3-3-1-1-1-1-1-|

Bridge:

F |--------------------------|---------------------------------|
C |--------------------------|---------------------------------|x4
G |-5----------5----55555555-|-5--5-5-5-5--5-5-5--5-5-5-5--5-5-|
C |-0----------0----00000000-|--00-0-0-0-00-0---00-0-0-0-00-0--|

F |---------------------------|
C |---------------------------|
G |-55555-55555-55555-55555-5-|
C |-00000-00000-00000-00000-0-|

Breakdown:

F |--------------------------------------|-----------------------------------|
C |--------------------------------------|-----------------------------------|
G |-55555-55555-55555-55555-55--------55-|-55555-55555-55555-55555-55--------|
C |-00000-00000-00000-00000-00--------00-|-00000-00000-00000-00000-00-----0/-|

Interlude:

F |-----------------------|  |-------------------------------|  |-------|
C |-----------------------|x2|-------------------------------|x2|-------|
G |-555--5-55---333--3-33-|  |-------555--5-5------333--3-33-|  |-------|
C |-----------------------|  |-0-3-5-----0-0----0------------|  |-0-3-5-|

Outro from Interlude:

F |-7---------------|
C |-7---------------|
G |-5------55555555-|
C |-0------00000000-|

Chorus 1, Chorus 2: Same as above, 4 of each.

Ending:

F |-------------------|  |----------------------------|
C |-7------8---3---10-|x1|----------------------------|x2
G |-5------8---3---10-|  |----------------------------|
C |-0------8---3---10-|  |-000---0--0-0-888--55555555-|

F |----------------------------|
C |-777---7--7-7-777--77777777-|x4
G |-555---5--5-5-555--55555555-|
C |-000---0--0-0-000--00000000-| 
viper btab
Rated: 3.30Reviews: 921